» » »

Quietdrive, Time After Time Tabs (ver.4)

Artists:  A B C D E F G H I J K L M N O P Q R S T U V W X Y Z # 

Time After Time Tabs (ver.4)

Quietdrive Tabs
Rating:
4/5 (2 votes)
Time After Time lessons Tabs too difficult? Try these video lessons and learn fast
                Time After Time
By
Quietdrive

I'm not even going to try and say this is accurate, but
this is how I play it....

Tuned down 1 half step

Intro (Repeat Twice)

Eb|-------------------|
Bb|---6---------------|
Gb|---6-----2----3----|
Db|---6-----3----4----|
Ab|---4-----3----4----|
Eb|---------1----2----|


Verse:

Eb|-------------------------------------------------------|
Bb|--6----------------------------------------------------|
Gb|--6--------------------------2--------------3----------|
Db|--6--------------------------3--------------4----------|
Ab|--4--------------------------3--------------4----------|
Eb|-----------------------------1--------------2----------|

     Lying in my bed I hear the Clock tick and think of you


Eb|-------------------------------------------------------|
Bb|--6----------------------------------------------------|
Gb|--6--------------------------2--------------3----------|
Db|--6--------------------------3--------------4----------|
Ab|--4--------------------------3--------------4----------|
Eb|-----------------------------1--------------2----------|

     Caught up in circles    Confusion is      nothing new


Pre-chours

Eb|------------------------------------------------------------|
Bb|--6---8----5---6------8------------6-----8------5----6------|
Gb|--6---8----5---6------8------3-----6-----8------5----6------|
Db|--6---8--- 5---6------8------4-----6-----8------5----6------|
Ab|--4---6----3---4------6------4-----4-----6------3----4------|
Eb|-----------------------------2------------------------------|

     you say  Go  slow I fall behind    The second hand unwinds


Chorus

Eb|-------------------------------------------------------|
Bb|-------------------------------------------------------|
Gb|-----------5-------------------------7-----------------|
Db|-----------6-------------------------8-----------------|
Ab|-----------6-------------------------8-----------------|
Eb|-----------4-------------------------6-----------------|

    If you’re lost You can look And you will find me
    If you    fall I will catch you I’ll be waiting


Eb|----------------------|
Bb|-------------6--------|
Gb|--3----5-----6--------|
Db|--4----6-----6--------|
Ab|--4----6-----4--------|
Eb|--2----4--------------|

     Time after time
     Time after time

Verse:

Eb|------------------------------------------------------|
Bb|--6---------------------------------------------------|
Gb|--6----------------------------2-----------3----------|
Db|--6----------------------------3-----------4----------|
Ab|--4----------------------------3-----------4----------|
Eb|-------------------------------1-----------2----------|

     Sometimes you picture me I'm walking too far ahead


Eb|------------------------------------------------------|
Bb|--6---------------------------------------------------|
Gb|--6----------------------2---------------3------------|
Db|--6----------------------3---------------4------------|
Ab|--4----------------------3---------------4------------|
Eb|-------------------------1---------------2------------|

     You're calling to me I can't hear just what you said

Pre-chours

Eb|------------------------------------------------------------|
Bb|--6---8----5---6------8------------6-----8------5----6------|
Gb|--6---8----5---6------8------3-----6-----8------5----6------|
Db|--6---8--- 5---6------8------4-----6-----8------5----6------|
Ab|--4---6----3---4------6------4-----4-----6------3----4------|
Eb|-----------------------------2------------------------------|

     you say  Go  slow I fall behind    The second hand unwinds


Chorus

Eb|-------------------------------------------------------|
Bb|-------------------------------------------------------|
Gb|-----------5-------------------------7-----------------|
Db|-----------6-------------------------8-----------------|
Ab|-----------6-------------------------8-----------------|
Eb|-----------4-------------------------6-----------------|

    If you’re lost You can look And you will find me
    If you    fall I will catch you I’ll be waiting


Eb|----------------------|
Bb|-------------6--------|
Gb|--3----5-----6--------|
Db|--4----6-----6--------|
Ab|--4----6-----4--------|
Eb|--2----4--------------|

     Time after time
     Time after time

Solo (Repete Twice) This is how I play it..not sure if it's correct

Eb|--999-88888-666-44444--44-4-6-4------------------------|
Bb|--------------------------------6-4-2-4-2--2-4/6-------|
Gb|-------------------------------------------------------|
Db|-------------------------------------------------------|
Ab|-------------------------------------------------------|
Eb|-------------------------------------------------------|


Bridge

Eb|-------------------------------------------------------|
Bb|-----------------------------------------6-------------|
Gb|--5-------7-----------------3---5--------6-------------|
Db|--6-------8-----------------4---6--------6-------------|
Ab|--6-------8-----------------4---6--------4-------------|
Eb|--4-------6-----------------2---4----------------------|

    After my picture fades and darkness has turned to grey


Eb|-------------------------------------------------------|
Bb|--------------------------------------6--------6-------|
Gb|--5----------------7--------------3---5--------6-------|
Db|--6----------------8--------------4---6--------6-------|
Ab|--6----------------8--------------4---6--------4-------|
Eb|--4----------------6--------------2---4----------------|

     Watching through windows you're wondering if I'm ok


Pre-chours

Eb|--------------------------------------------------------------|
Bb|--6---8----5---6------8------------6-----8----------5-------6-|
Gb|--6---8----5---6------8------3-----6-----8----------5-------6-|
Db|--6---8--- 5---6------8------4-----6-----8----------5-------6-|
Ab|--4---6----3---4------6------4-----4-----6----------3-------4-|
Eb|-----------------------------2--------------------------------|

     you say  Go  slow I fall behind    The drum beats out of time


Chorus (Repeat Twice)

Eb|-------------------------------------------------------|
Bb|-------------------------------------------------------|
Gb|-----------5-------------------------7-----------------|
Db|-----------6-------------------------8-----------------|
Ab|-----------6-------------------------8-----------------|
Eb|-----------4-------------------------6-----------------|

    If you’re lost You can look And you will find me
    If you    fall I will catch you I’ll be waiting

Eb|----------------------|
Bb|-------------6--------|
Gb|--3----5-----6--------|
Db|--4----6-----6--------|
Ab|--4----6-----4--------|
Eb|--2----4--------------|

     Time after time
     Time after time
            

comments powered by Disqus
↑ Back to top | Quietdrive Tabs for Time After Time. Lyrics for acoustic guitar and electric guitar. Tablatures and chords are parodies/interpretations of the original songs. You may use it for private study, scholarship, research or language learning purposes only