» » »

Quietdrive, Rise From The Ashes Tabs (ver.4)

Artists:  A B C D E F G H I J K L M N O P Q R S T U V W X Y Z # 

Rise From The Ashes Tabs (ver.4)

Quietdrive Tabs
Rating:
4/5 (9 votes)
Rise From The Ashes lessons Tabs too difficult? Try these video lessons and learn fast
                Okay, I've updated it and now it's perfect.  I play it with the song allll the time.

INTRO
(Rhythm guitar)
||------------------------------------------------------------------|
||------------------------------------------------------------------|
||-77777777777777-333333333333333------------------5555555555555555-|
||-77777777777777-333333333333333-3333333333333333-5555555555555555-|  x2
||-55555555555555-111111111111111-1111111111111111-3333333333333333-|
||--------------------------------1111111111111111------------------|
|
|(Lead guitar)
||-5-----------5-----------------|             |-11-11--11-11-11-11--11-10-|
||---8-6-5-------8-6-5-----5/666-|             |-11-11--11-11-11-11--11-10-|
||---------7-5---------7-5-------|             |---------------------------|
||-------------------------------| x3    then  |---------------------------|
||-------------------------------|             |---------------------------|
||-------------------------------|             |---------------------------|



VERSE

|------------------------------------------------------------------|
|------------------------------------------------------------------|
|-77777777777777-333333333333333------------------5555555555555555-|
|-77777777777777-333333333333333-3333333333333333-5555555555555555-|
|-55555555555555-111111111111111-1111111111111111-3333333333333333-|
|--------------------------------1111111111111111------------------|
 I felt this way...i fell right....and I am certain..broken, bruised...



CHORUS

|----------------------------------------------------------------|
|-77--77-7-7-7-7--33--33-3-3-3-3-----------------55-55-5-5-5-5---|
|-77--77-7-7-7-7--33--33-3-3-3-3--33-33-3-3-3-3--55-55-5-5-5-5---|
|-77--77-7-7-7-7--33--33-3-3-3-3--33-33-3-3-3-3--55-55-5-5-5-5---|
|-55--55-5-5-5-5--11--11-1-1-1-1--33-33-3-3-3-3--33-33-3-3-3-3---|
|---------------------------------11-11-1-1-1-1------------------|
   I will now........Don't call me...I'm sitting....Making my own rules



BRIDGE

|-----------|
|-55--55-5~~|
|-55--55-5~~|
|-55--55-5~~|
|-33--33-3~~|
|-----------|

(BACK TO INTRO at "It's settling....inside of me")

*pick-scratch*
"I'll fall down with flames burning alive"


That's really it.  Here's the order

INTRO
VERSE  x2 (palm muted)
CHORUS x2
VERSE  x2 (first time palm muted)
BRIDGE
CHORUS x2

OUTRO:
|----------|
|-7--5--2--|
|-8--6--3--|
|-8--6--3--|
|-6--4--1--|
|----------|
            
Submit corrections

comments powered by Disqus
↑ Back to top | Quietdrive Tabs for Rise From The Ashes. Lyrics for acoustic guitar and electric guitar. Tablatures and chords are parodies/interpretations of the original songs. You may use it for private study, scholarship, research or language learning purposes only