» » »

Quietdrive, Maybe Misery Bass tabs (ver.1)

Artists:  A B C D E F G H I J K L M N O P Q R S T U V W X Y Z # 

Maybe Misery Bass tabs (ver.1)

Quietdrive Tabs
Rating:
5/5 (1 vote)
Maybe Misery lessons Tabs too difficult? Try these video lessons and learn fast
                -------------------------------------------------------------------------------
-------------------------------------------------------------------------------
Tuning: standard

Verse
G|---------------------------------------|
D|---------------------------------------|
A|-----------3-3-3-3---------------------|
E|1-1111-1-1---------5-55-5-55-5-3-3-0-1-|x4

Pre-Chorus
G|---------------------------------------------|
D|---------------------------------------------|
A|---3-3-------------------3-33----------------|
E|11-----555-3-33h5-30-1-1------555-5-5-333333-|

Chorus
G|----------------------------------------|
D|----------------------------------------|
A|-------------3-3-3-3--------------------|
E|1-11-1-11-11---------555-55-5-5-33-0-1--| x2

Post Verse
G|---------------------------------|
D|---------------------------------|
A|1/88888888-3333333---------------|
E|-------------------55555555-3-00-|

Verse x2
Pre-Chorus x1
Chorus x2

Bridge (1:39)
G|-------------------------------------------------------------------------|
D|-------------------------------------------------------------------------|
A|2222-333333333333--------------------------------------------------------|
E|-----------------3333333333333333-5555555555555555-11111111111-333-3h5-3-|

G|--------------------------------------------------------------------|
D|--------------------------------------------------------------------|
A|333333333333--------------------------------------------------------|
E|------------3333333333333333-5555555555555555-11111111111-333-3h5-3-|

Chorus x2

Breakdown:
G|-----------------------------------------------------------------|
D|-----------------------------------------------------------------|
A|333333333333-----------------------------------------------------|
E|-------------3333333333333333-5555555555555555-11111111111-333-1-| x3

G|---------------------------------------------------------------------------|
D|---------------------------------------------------------------------------|
A|---------------------------------------------------------------------------|
E|---------------------------------------------------------------------------|
            

comments powered by Disqus
↑ Back to top | Quietdrive Bass for Maybe Misery. Lyrics for acoustic guitar and electric guitar. Tablatures and chords are parodies/interpretations of the original songs. You may use it for private study, scholarship, research or language learning purposes only