» » »

Quietdrive, I Lie Awake Tabs (ver.1)

Artists:  A B C D E F G H I J K L M N O P Q R S T U V W X Y Z # 

I Lie Awake Tabs (ver.1)

Quietdrive Tabs
 Rating:
3.4/5 (5 votes)
I Lie Awake lessons Tabs too difficult? Try these video lessons and learn fast
                QUIETDRIVE
"I Lie Awake"

--------------------

this song by quietdrive is aweseom but there were no tabs for it so here it is. this 
be perfect but i wasn't 100% sure about the verse, but it sounds right.

Tuning:standard

VERSE 1:
e|------------------------------------------------------|
B|-------5------------5-----------5-----------5-----5---|
G|-----5---5--------5---5-------5---5-------5-----5---5-|    (repeat 2x)
D|---5-------5----5-------5---5-------5---5-----5-------|
A|-3------------3-----------3-----------3---------------|
E|------------------------------------------------------|

PRE-CHORUS 1:
e|-------------------------------------------------------------------------|
B|-------5-----------5-----------5-----------5-----------5-----------5-----|
G|-----5---5-------5---5-------5---5-------5---5-------5---5-------5---5---|
D|---3-------5---5-------5---5-------5---5-------5---5-------5---5-------5-|
A|-0-----------3-----------0-----------3-----------0-----------3-----------|
E|-------------------------------------------------------------------------|


CHORUS 1:
e|-------------------------------------------------------------------------|
B|-------------------------------------------------------------------------|
G|-55555555-----------55555555-----------------------------5555------------|
D|-55555555-7777-5555-55555555-7777-5555-77777777-33333333-5555-5555-3~----|
A|-33333333-7777-5555-33333333-7777-5555-77777777-33333333-3333-5555-3~----|
E|----------5555-3333----------5555-3333-55555555-11111111------3333-1~----|


VERSE 2:
e|------------------------------------------------------------|
B|------------------------------------------------------------|
G|-----5-----5--------5-----5--------5-----5--------5-----5---| (repeat 2x)
D|---5---5-----5----5---5-----5----5---5-----5----5---5-----5-|
A|-3-------3------3-------3------3-------3------3-------3-----|
E|------------------------------------------------------------|

PRE-CHORUS 2:
e|------------------------------------------------------------------|
B|-------5-----------5-----------5-----------5----------------------|
G|-----5---5-------5---5-------5---5-------5---5---55555555555555555|
D|---3-------5---5-------5---5-------5---5-------5-55555555555555555|
A|-0-----------3-----------0-----------3-----------33333333333333333|
E|------------------------------------------------------------------|
                                                 PM*****************

CHORUS 2:
e|-------------------------------------------------------------------|
B|-------------------------------------------------------------------|
G|-55555555-----------55555555-----------------------------5555------|
D|-55555555-7777-5555-55555555-7777-5555-77777777-33333333-5555-5555-|
A|-33333333-7777-5555-33333333-7777-5555-77777777-33333333-3333-5555-|
E|----------5555-3333----------5555-3333-55555555-11111111------3333-|


e|-----------------------|
B|-----------------------|
G|----------5555---------|
D|-33333333-5555-5555-3~-|
A|-33333333-3333-5555-3~-|
E|-11111111------3333-1~-|


CHORUS 3:
e|-------------------------------------------------------------------------|
B|-------------------------------------------------------------------------|
G|-----5-------5-------5--------55555555-----------------------------------|
D|---5---5---5---5---5---5---5--55555555-7777-5555-77777777-33333333-------|
A|-3-------3-------3-------3----33333333-7777-5555-77777777-33333333-------|
E|---------------------------------------5555-3333-55555555-11111111-------|
                                                 PM******** ********

e|-------------------------------------------------------------------------|
B|-------------------------------------------------------------------------|
G|-5555--------------------------------------------------------------------|
D|-5555-5555-33333333------------------------------------------------------|
A|-3333-5555-33333333------------------------------------------------------|
E|------3333-11111111------------------------------------------------------|
 PM**** **** ****


CHORUS 4:
e|---------------------------------------------------------------------|
B|---------------------------------------------------------------------|
G|-55555555-----------55555555-------------------------------5555------|
D|-55555555-7777-5555-55555555-7777-5555-7777-3333-7777-3333-5555-5555-|
A|-33333333-7777-5555-33333333-7777-5555-7777-3333-7777-3333-3333-5555-|
E|----------5555-3333----------5555-3333-5555-1111-5555-1111------3333-|

e|------------------------------------------|
B|------------------------------------------|
G|----------5~---------------5~-------------|
D|-33333333-5~----5~----3~---5~----5~----3~-|
A|-33333333-3~----5~----3~---3~----5~----3~-|
E|-11111111-------3~----1~---------3~----1~-|

thats it.enjoy.
            
Submit corrections

comments powered by Disqus
↑ Back to top | Quietdrive Tabs for I Lie Awake. Lyrics for acoustic guitar and electric guitar. Tablatures and chords are parodies/interpretations of the original songs. You may use it for private study, scholarship, research or language learning purposes only