» » »

Quicksand, Thorn In My Side Tabs (ver.1)

Artists:  A B C D E F G H I J K L M N O P Q R S T U V W X Y Z # 

Thorn In My Side Tabs (ver.1)

Quicksand Tabs
 Rating:
4/5 (4 votes)
Thorn In My Side lessons Tabs too difficult? Try these video lessons and learn fast
                




   Main Riff
E-|-------------------------------------|
B-|-------------------------------------|
G-|-------------------------------------|
D-|--0----0-0-----10---6/5--------------|
A-|--0----0-0-----10---6/5--------------|
D-|--0----0-0-----10---6/5--------------|

   Verse Riff -- to do the harmonics, simply speed pick the D while
                 lightly sliding your finger up it.
E-|----------------------------------------------------------------|
B-|----------------------------------------------------------------|
G-|----------------------------------------------------------------|
D-|--0----0-0--<15><14><13><12><11><10><9<8><7><6><5><4><3><2><1>--|
A-|--0----0-0------------------------------------------------------|
D-|--0----0-0------------------------------------------------------|

   Pre-Chorus                        Chorus
E-|---------------------------------|------------|
B-|---------------------------------|------------|
G-|---------------------------------|------------|
D-|--10---------------3-------------|--0----0-0--|
A-|--10---------------3-------------|--0----0-0--|
D-|--10---------------3-------------|--0----0-0--|

   Bassline during interlude -- speed pick this
G-|-------------------------------------|
D-|-------------------------------------|
A-|-------------------------------------|
D-|-0-0-0-0-1-0-0-0-0-0-0-0-1-1-0-0-----|

   Guitar -- all strums are based around
             the D chord, you can slide
             around it
E-|-------------------------------------|------------|
B-|-------------------------------------|------------|
G-|-7-----------------------------------|--14--------|
D-|-7-----------------------------------|--14--------|
A-|-5-----------------------------------|--12--------|
D-|-------------------------------------|------------|

The rest is just the main riff

A thorn in my side
and you live just to pull me down
rusted nail I stepped on this infection
A thorn in my side
You're full
I think so
of Anger
You need to sit down
and stay down
these things you want but don't get
Is that fair?
I don't think so
A sure thing that you can count on
a big depression

Your praise is two faced
and you're cut down my friend
            
Submit corrections

comments powered by Disqus
↑ Back to top | Quicksand Tabs for Thorn In My Side. Lyrics for acoustic guitar and electric guitar. Tablatures and chords are parodies/interpretations of the original songs. You may use it for private study, scholarship, research or language learning purposes only