>
 >
How Soon Is Now?

How Soon Is Now? Bass Tabs

Quicksand - How Soon Is Now? chords, tabs, tablatures, lyrics

Guitar lessons | Add/correct | Request | Top 50 tabs Artists:  A B C D E F G H I J K L M N O P Q R S T U V W X Y Z 0-9

How Soon Is Now? Bass Tabs – Quicksand

CD, Sheet music, Poster

Do you like How Soon Is Now?? Share with your friends now
Bass Tabs
Quicksand-How soon is now
Standart Tuning

Verse a
		    3x then
G|--------------------|-------------------------|
D|--------------------|-------------------------|
A|--------------------|-0-00-0-00-22-0h2-0------|
E|-2-0-9p0-2-2-0-2-0--|-------------------------|

Verse b
		    3x then
G|--------------------|-------------------------|
D|-4------------------|-------------------------|
A|--------------------|-0-00-0-00-22-0h2-0------|
E|---0-9p0-2-2-0-2-0--|-------------------------|

Chorus

G|-----------------------------------------------------------------------------|
D|-----------------------------------------------------------------------------|
A|-----------------------------------------------------------------------------|
E|-7-77-7-77-1010-10-10-5-55-5-55-00-0-0-9-99-9-99-1212-12-12-2-22-2-22-22-2-2-|

							        
G|------------------------------------------------------------|----|
D|------------------------------------------------------------|----|
A|------------------------------------------------------------|----|
E|-7-77-7-77-1010-10-10-5-55-5-55-00-0-0-9-99-9-99-00-0-0-----|-2m-|
                                                                third chorus
Outro

		   3x then
G|-------------------|-----------------|
D|-------------------|-----------------|
A|-------------------|--0-0-0-2-2-2----|
E|-2-0-9p0-2-2-0-2-0-|--------------2m-|

order:

1x Verse b
2x verse a
chorus
3x verse a
chorus
1x verse a
3x verse b
chorus
outro





Comments


Popular Quicksand tabs & chords
Fazer Bass Tabs
Delusional Chords
Freezing Process Chords
Blister Tabs
Delusional Tabs
Dine Alone 1 Tabs
Simpleton Tabs
Thorn In My Side 1 Tabs
Unfulfilled Tabs
Unfulfilled 1 Tabs


Song lyrics



↑ Back to top | Tablatures and chords are parodies/interpretations of the original songs. You may use it for private study, scholarship, research or language learning purposes only
© 2014 AZChords.com Contact us | Privacy policy | DMCA | Add/correct tabs | Request tabs | Top 50 tabs