» » »

Drive Less Bass tabs (ver.1)

Artists:  A B C D E F G H I J K L M N O P Q R S T U V W X Y Z # 

Drive Less Bass tabs (ver.1)

Quicksand
Rating:
0/5 (0 votes)

Hard to play? Try these video lessons and learn fast.
                G------------------------------------------------------------------------------------
D------------------------------------------------------------------------------------
A------------------------------------------------------------------------------------
D----0-0-------7----9--------12--------0-12-0-12-0-12-12-12--------------------------

G------------------------------------------------------------------------------------
D------------------------------------------------------------------------------------
A------------------------------------------------------------------------------------
D-------0-12-0-12-0-12-12-12---0-12-0-12-0-12-12-12---0-12-0-12-0-12-12-12-----------

G------------------------------------------------------------------------------------
D------------------------------------------------------------------------------------
A------------------------------------------------------------------------------------
D-----7---9------4--------2------0-12-0-12-0-12-12-12---0-12-0-12-0-12-12-12---------

G------------------------------------------------------------------------------------
D------------------------------------------------------------------------------------
A-------------------------3---------1-----------------5------------------------------
D------0--------1--------------------------------------------------------------------

G------------------------------------------------------------------------------------
D------------------------------------------------------------------------------------
A------------------------------------------------------------------------------------
D----0-0-------7----9--------12--------0-12-0-12-0-12-12-12--------------------------

G------------------------------------------------------------------------------------
D------------------------------------------------------------------------------------
A------------------------------------------------------------------------------------
D-------0-12-0-12-0-12-12-12---0-12-0-12-0-12-12-12---0-12-0-12-0-12-12-12-----------

G------------------------------------------------------------------------------------
D------------------------------------------------------------------------------------
A------------------------------------------------------------------------------------
D-----7---9------4--------2------0-12-0-12-0-12-12-12---0-12-0-12-0-12-12-12---------

G------------------------------------------------------------------------------------
D------------------------------------------------------------------------------------
A-------------------------3---------1-----------------5------------------------------
D------0--------1--------------------------------------------------------------------

G------------------------------------------------------------------------------------
D------------------------------------------------------------------------------------
A------------------------------------------------------------------------------------
D------------------------------0-----------------------------------------------------
            
Hard to play? Try these video lessons and learn fast. | Correct




comments powered by Disqus
↑ Back to top | Tablatures and chords are parodies/interpretations of the original songs. You may use it for private study, scholarship, research or language learning purposes only