» » »

Dine Alone Bass tabs (ver.1)

Artists:  A B C D E F G H I J K L M N O P Q R S T U V W X Y Z # 

Dine Alone Bass tabs (ver.1)

Quicksand
Rating:
0/5 (0 votes)

Hard to play? Try these video lessons and learn fast.
                

G-------------------------------------------|
D-------------------------------------------|
A-------------------------------------------|
D0~~~~~~~~~~~~~~~~~~~~~~~~~~~~~~~~~~~~~~~~~~|


G-------------------------------------------  after this just repeat--| 7x
D---------------------------------------------------------------------|  without the open d.
A56-53-56-56-56-8-56-53-56-56-8---------------------------------------|
D------------------------------0~~~~~~~~~~~~--------------------------|


G---------0~~~~-----------------------------| reapeat but 1's instead of 0's
D-----3---------3---------------------------|
A3~~~--3------------------------------------|
D-------------------0000-00000-000-00000----|


G-------------------------------------------|
D--------------7---7-7----------------------|
A-5-55-5555-55--555-5-----------------------|
D-------------------------------------------|


then reapeat part one and two to the end
            
Hard to play? Try these video lessons and learn fast. | Correct




comments powered by Disqus
↑ Back to top | Tablatures and chords are parodies/interpretations of the original songs. You may use it for private study, scholarship, research or language learning purposes only