» » »

Quicksand, Blister Tabs (ver.1)

Artists:  A B C D E F G H I J K L M N O P Q R S T U V W X Y Z # 

Blister Tabs (ver.1)

Quicksand Tabs
Rating:
0/5 (0 votes)
Blister lessons Tabs too difficult? Try these video lessons and learn fast
                This is the tab for the song Blister by Quicksand. It is in Drop D tuning enjoy!
x=String Mute
~=Sustain
Intro:

e|---------------------------------------------------------------------------|
B|---------------------------------------------------------------------------|
G|---------------------------------------------------------------------------|
D|--00006535-00006535--------------------------------------------------------|
A|--00006535-00006535--------------------------------------------------------|
D|--00006535-00006535--------------------------------------------------------|

Verse:Palm mute

e|---------------------------------------------------------------------------|
B|---------------------------------------------------------------------------|
G|---------------------------------------------------------------------------|
D|---------------------------------------------------------------------------|
A|---------------------------------------------------------------------------|
D|--00006535-00006535--------------------------------------------------------|

Chorus:
e|---------------------------------------------------------------------------|
B|---------------------------------------------------------------------------|
G|---------------------------------------------------------------------------|
D|--00xxxxxx--00xxxxxx-------------------------------------------------------|
A|--00xxxxxx--00xxxxxx-------------------------------------------------------|
D|--00xxxxxx--00xxxxxx-------------------------------------------------------|

it goes back to the intro riff and then the second verse and second chorus are played the same

Bridge:
e|---------------------------------------------------------------------------|
B|--------------11-11-11-11-11---------------11-11-11-11-11------------------|
G|---------------------------------------------------------------------------|
D|--0~---------------------------0~------------------------------------------|
A|--0~---------------------------0~------------------------------------------|
D|--0~---------------------------0~------------------------------------------|

Then comes the solo and then it goes back to the chorus for one measure. HAVE FUN!
            
Submit corrections

comments powered by Disqus
↑ Back to top | Quicksand Tabs for Blister. Lyrics for acoustic guitar and electric guitar. Tablatures and chords are parodies/interpretations of the original songs. You may use it for private study, scholarship, research or language learning purposes only