» » »

Today I Fell In Love Bass tabs (ver.1)

Artists:  A B C D E F G H I J K L M N O P Q R S T U V W X Y Z # 

Today I Fell In Love Bass tabs (ver.1)

Queers
Rating:
0/5 (0 votes)

Hard to play? Try these video lessons and learn fast.
                This is a well cool song i thought…..first song i have tabbed that isnt by NOFX…wow…..umm ive kinda written it to the pattern of the lyrics…otherwise the lines will send you to sleep..good song all the same…hope you enjoy

‘Hangin on the telephone…’
G :------------------------------------------------------------------------|
D :------------------------------------------------------------------------|
A :-0-0-0-0--1-3-3--3-3-3-3-3-3---------0-1-0-0--0-0-0-0-0-0---|
E :-------------------------------------3-3-3----------------------------|

‘Feelin kinda cool today..’
G :------------------------------------------------------------------------|
D :------------------------------------------------------------------------|
A :-0-0-0-0--1-3-3--5-3-3-3-3-3---------0-1-0-0--0-0-0-0-0-0---|
E :-------------------------------------3-3-3----------------------------|

‘Rainbows in my head..’
G :-------------------------------------------------------------------|
D :-------------------------------------------------------------------|
A :--3-3-3-5-3----1-0-0-0-0----0-1-0-0-------------------------|
E :---------------3---------------3-----------------------------------|


G :-------------------------------------------------------------------|
D :-------------------------------------------------------------------|
A :--3-3-3-5-3----1-0-0-0-0----0-1-0---------------------------|
E :---------------3---------------3-------1-1-1-1-1-1-------------|

‘See im Confessin’
G :----------------------------------------------------------------------|
D :----------------------------------------------------------------------|
A :--3-3-3--5-5-5-5--3-3-3-3--1-0-0---3-3-3--5-5-5-5--3-------|
E :-----------------------------------------------------------------5-3-|

‘….My hearts in the right place’
G :-------------------------------------------------------------------|
D :-------------------------------------------------------------------|
A :--3-3-3-5-3----1-0-0-0-0----0-1-0---------------------------|
E :---------------3---------------3-------1-1-1-1-1-1-------------|

‘I Got the sun and the moon and the stars above, coz today i fell in love’
G :----------------------------------------------------------------------|
D :--------3-3-3-2-2-2------------------------------------------------|
A :-3-3-3----------------3-5----------0-1----------------------------|
E :-----------------------------1---1-3-----3-0-1---------------------|

‘yeah today i fell in love….’              Do this last time round 
G :---------------------------------------|-------------------------------------------|
D :---------------------------------------|-------------------------------------------|
A :-------0-1----------------------------|-------------------------------------------|
E :---1-3-----3-0-1---------------------|---1-1-1-1-1-1-1-1-0-0-0-0-0-0-0-0-|

Play the little bell solo with the first bassline…have fun !!
            
Hard to play? Try these video lessons and learn fast. | Correct




comments powered by Disqus
↑ Back to top | Tablatures and chords are parodies/interpretations of the original songs. You may use it for private study, scholarship, research or language learning purposes only