» » »

Teenage Bonehead Tabs (ver.1)

Artists:  A B C D E F G H I J K L M N O P Q R S T U V W X Y Z # 

Teenage Bonehead Tabs (ver.1)

Queers
Rating:
0/5 (0 votes)

Hard to play? Try these video lessons and learn fast.
                			     Teenage Bonehead - The Queers

Tuning: Standard


Intro:
e|-------------------------------------------------|
B|-------------------------------------------------|
G|-------------------------------------------------|
D|--6/7777----6/7777----7----5----4----2-----------|
A|--4/5555----4/5555----5----3----2----0-----------|
E|-------------------------------------------------|

Verse:
e|--------------------------------------|
B|--------------------------------------|
G|--------------------------------------|
D|------------------5555----7777--------| (x2)
A|--5555----2222----3333----5555--------|
E|--3333----0000------------------------|

Pre-Chorus:
e|------------------------------------------------------|
B|------------------------------------------------------|
G|------------------------------------------------------|
D|----------55----77--(x2)--------------5555----7777----|
A|--2222----33----55------------2222----3333----5555----|
E|--0000------------------------0000--------------------|

Chorus:
e|-----------------------------------------------------------|
B|-----------------------------------------------------------|
G|-----------------------------------------------------------|
D|--------------55----77--(x2)-----------------5555----7777--|
A|--55----22----33----55-----------55----22----3333----5555--|
E|--33----00-----------------------33----00------------------|

Bridge:
e|----------------------------------|
B|----------------------------------|
G|----------------------------------|
D|--4444---5555--(x3)----7777-------|
A|--2222---3333----------5555-------|
E|----------------------------------|


| /  slide up
| \  slide down
| h  hammer-on
| p  pull-off
| ~  vibrato
| +  harmonic
| x  Mute note
            
Hard to play? Try these video lessons and learn fast. | Correct




comments powered by Disqus
↑ Back to top | Tablatures and chords are parodies/interpretations of the original songs. You may use it for private study, scholarship, research or language learning purposes only