» » »

Queers, Tamara Is A Punk Tabs (ver.1)

Artists:  A B C D E F G H I J K L M N O P Q R S T U V W X Y Z # 

Tamara Is A Punk Tabs (ver.1)

Queers Tabs
 Rating:
4/5 (4 votes)
Tamara Is A Punk lessons Tabs too difficult? Try these video lessons and learn fast
                
Intro

E---------------------
B---------------------
G---5/7-7-7-7-7-7-7-7-
D-5-5/7-7-7-7-7-7-7-7-
A-5-3/5-5-5-5-5-5-5-5-
E-3-------------------

Verse

E---------------------------------
B---------------------------------
G---------7-7-7-7-5-5-5-5-7-7-7-7-
D-5-5-5-5-7-7-7-7-5-5-5-5-7-7-7-7-
A-5-5-5-5-5-5-5-5-3-3-3-3-5-5-5-5-
E-3-3-3-3-------------------------

E---------------------------------
B---------------------------------
G-5-5-5-5---------7-7-7-7---------
D-5-5-5-5-5-5-5-5-7-7-7-7-5-5-5-5-
A-3-3-3-3-5-5-5-5-5-5-5-5-5-5-5-5-
E---------3-3-3-3---------3-3-3-3-

E--------------------------------
B--------------------------------
G-5-5-5-5-5-5-5-5-7-7-7-7-7-7-7-7
D-5-5-5-5-5-5-5-5-7-7-7-7-7-7-7-7
A-3-3-3-3-3-3-3-3-5-5-5-5-5-5-5-5
E--------------------------------

Coris
E----------------
B----------------
G---------5-5-7-7
D-5-5-5-5-5-5-7-7
A-5-5-5-5-3-3-5-5
E-3-3-3-3--------

Other Part

E---------------------------------
B---------------------------------
G-7-7-7-7-7-7-7-7-----------------
D-7-7-7-7-7-7-7-7-5-5-5-5-5-5-5-5-
A-5-5-5-5-5-5-5-5-5-5-5-5-5-5-5-5-
E-----------------3-3-3-3-3-3-3-3-

E-----------------------------------------------------------------
B-----------------------------------------------------------------
G-5-5-5-5-5-5-5-5-----------------7-7-7-7-7-7-7-7-7-7-7-7-7-7-7-7-
D-5-5-5-5-5-5-5-5-5-5-5-5-5-5-5-5-7-7-7-7-7-7-7-7-7-7-7-7-7-7-7-7-
A-3-3-3-3-3-3-3-3-5-5-5-5-5-5-5-5-5-5-5-5-5-5-5-5-5-5-5-5-5-5-5-5-
E-----------------3-3-3-3-3-3-3-3---------------------------------
            
Submit corrections

comments powered by Disqus
↑ Back to top | Queers Tabs for Tamara Is A Punk. Lyrics for acoustic guitar and electric guitar. Tablatures and chords are parodies/interpretations of the original songs. You may use it for private study, scholarship, research or language learning purposes only