>
 >
Punk Rock Girls

Punk Rock Girls Guitar Tabs

Queers - Punk Rock Girls chords, tabs, tablatures, lyrics

Guitar lessons | Add/correct | Request | Top 50 tabs Artists:  A B C D E F G H I J K L M N O P Q R S T U V W X Y Z 0-9

Punk Rock Girls Guitar Tabs – Queers

CD, Sheet music, Poster

Do you like Punk Rock Girls? Share with your friends now
Bass TabsChordsTabsUkulele
Punk Rock Girls- The Queers

standard tuning 
EBGDAE

intro
E|---------------------|
B|---------------------|
G|-6/7-77-6-7-6-7-6-77-|
D|-6/7-77-x-x-x-x-x-77-|
A|-4/5-55-4-5-4-5-4-55-|
E|---------------------|


VERSE:
  Leather jackets stupid boyfriends
    Hi- top chucks and bubblegum 
E|-----------------|
B|-----------------|
G|-----------------|
D|-5-5-5-5-5-5-5-5-|
A|-5-5-5-5-5-5-5-5-|
E|-3-3-3-3-3-3-3-3-|

  poor report cards, life is just a ball
    and oh my gosh id love to love them all
E|-----------------|
B|-----------------|
G|-5-5-5-5-5-5-5-5-|
D|-5-5-5-5-5-5-5-5-|
A|-3-3-3-3-3-3-3-3-|
E|-----------------|

E|---------------------------|
B|---------------------------|
G|-7-7-7-7-7-7-7-7-7-7-7-7-7-|
D|-7-7-7-7-7-7-7-7-7-7-7-7-7-| 
A|-5-5-5-5-5-5-5-5-5-5-5-5-5-|
E|---------------------------|

^ repeat this twice ^


Pre-Chorus

  They're so cool their style is never cramped
  Too much of everything and everyone is amped
E|-------------------------|
B|-------------------------|
G|-5-5-5-5-7-7-7-7---------|
D|-5-5-5-5-7-7-7-7-5-5-5-5-| x2
A|-3-3-3-3-5-5-5-5-5-5-5-5-|
E|-----------------3-3-3-3-|

Pre-chorus cont.

  Well, do't get hot and bothered listen, I know I got problems
  
E|-----------------------------------------|
B|-----------------------------------------|
G|-5-5-5-5-7-7-7-7---------9-9-9-9---------|
D|-5-5-5-5-7-7-7-7-5-5-5-5-9-9-9-9-7-7-7-7-|
A|-3-3-3-3-5-5-5-5-5-5-5-5-7-7-7-7-7-7-7-7-|
E|-----------------3-3-3-3---------5-5-5-5-|

Pre-chorus cont.
  I also know just what this goofy world needs
E|-------------------------------------|
B|-------------------------------------|
G|-5-5-5-5-7-7-7-7-7-7-7-7-7-7-7-7-7-7-|
D|-5-5-5-5-7-7-7-7-7-7-7-7-7-7-7-7-7-7-|
A|-3-3-3-3-5-5-5-5-5-5-5-5-5-5-5-5-5-5-|
E|-------------------------------------|


CHORUS:
  Yummy yummy punk rock girls
E|----------------------------|
B|----------------------------|
G|----------------------------|
D|----------------------------|
A|----------------------------|
E|----------------------------|

           Yummy Yummy Punk rock girls x5
           I wish they all were punk rock girls
E|---------------------------------|
B|---------------------------------|
G|---------5-5-5-5-7-7-7-7-7-7-7-7-|
D|-5-5-5-5-5-5-5-5-7-7-7-7-7-7-7-7-|
A|-5-5-5-5-3-3-3-3-5-5-5-5-5-5-5-5-|
E|-3-3-3-3-------------------------|


Pre-Verse:
E|---------------------|
B|---------------------|
G|-6/7-77-6-7-6-7-6-77-|
D|-6/7-77-x-x-x-x-x-77-|
A|-4/5-55-4-5-4-5-4-55-|
E|---------------------|


VERSE:
  The smartest of the smartest 
     Me and Dr. Frank have both 
 
E|-----------------|
B|-----------------|
G|-----------------|
D|-5-5-5-5-5-5-5-5-|
A|-5-5-5-5-5-5-5-5-|
E|-3-3-3-3-3-3-3-3-|

  and the sweetest of the sweetest 
     decided that we love them
E|-----------------|
B|-----------------|
G|-5-5-5-5-5-5-5-5-|
D|-5-5-5-5-5-5-5-5-|
A|-3-3-3-3-3-3-3-3-|
E|-----------------|

  they're the most
     more then toast
E|---------------------------|
B|---------------------------|
G|-7-7-7-7-7-7-7-7-7-7-7-7-7-|
D|-7-7-7-7-7-7-7-7-7-7-7-7-7-| 
A|-5-5-5-5-5-5-5-5-5-5-5-5-5-|
E|---------------------------|


Pre-Chorus
  I wish they'd let me share their bubblegum
  And let me hang with them and life would be so fun
E|-------------------------|
B|-------------------------|
G|-5-5-5-5-7-7-7-7---------|
D|-5-5-5-5-7-7-7-7-5-5-5-5-| x2
A|-3-3-3-3-5-5-5-5-5-5-5-5-|
E|-----------------3-3-3-3-|

Pre-chorus cont.

  I should be sedated cuz my heart is all inflated
E|-----------------------------------------|
B|-----------------------------------------|
G|-5-5-5-5-7-7-7-7---------9-9-9-9---------|
D|-5-5-5-5-7-7-7-7-5-5-5-5-9-9-9-9-7-7-7-7-|
A|-3-3-3-3-5-5-5-5-5-5-5-5-7-7-7-7-7-7-7-7-|
E|-----------------3-3-3-3---------5-5-5-5-|

Pre-chorus cont.

  I guess I gotta get me one or two
E|-------------------------------------|
B|-------------------------------------|
G|-5-5-5-5-7-7-7-7-7-7-7-7-7-7-7-7-7-7-|
D|-5-5-5-5-7-7-7-7-7-7-7-7-7-7-7-7-7-7-|
A|-3-3-3-3-5-5-5-5-5-5-5-5-5-5-5-5-5-5-|
E|-------------------------------------|


CHORUS:
  Yummy yummy punk rock girls
E|----------------------------|
B|----------------------------|
G|----------------------------|
D|----------------------------|
A|----------------------------|
E|----------------------------|

          Yummy Yummy Punk rock girls x5
          I wish they all were punk rock girls
E|---------------------------------|
B|---------------------------------|
G|---------5-5-5-5-7-7-7-7-7-7-7-7-|
D|-5-5-5-5-5-5-5-5-7-7-7-7-7-7-7-7-|
A|-5-5-5-5-3-3-3-3-5-5-5-5-5-5-5-5-|
E|-3-3-3-3-------------------------|


Verse:

  I don't know where I'm going, but I know just where I'd like to be
E|-------------------------------------------------|
B|-5-5-5-5-5-5-5-5-5-5-5-5-------------------------|
G|-5-5-5-5-5-5-5-5-5-5-5-5-5-5-5-5-5-5-5-5-5-5-5-5-|
D|-3-3-3-3-3-3-3-3-3-3-3-3-5-5-5-5-5-5-5-5-5-5-5-5-|
A|-------------------------3-3-3-3-3-3-3-3-3-3-3-3-|

  With my punk rock girlfriend kissing me
E|-------------------------------------------------------|
B|-------------------------------------------------------|
G|---------------------5-5-5-5-5-5-7-7-7-7-7-7-7-7-7-7-7-|
D|-2-2-2-2-2-2-2-2-2-2-5-5-5-5-5-5-7-7-7-7-7-7-7-7-7-7-7-|
A|-2-2-2-2-2-2-2-2-2-2-3-3-3-3-3-3-5-5-5-5-5-5-5-5-5-5-5-|
E|-0-0-0-0-0-0-0-0-0-0-----------------------------------|

     Lets go
E|----------|
B|----------|
G|-77-------|
D|-77-------|
A|-55-------|
E|----------|

 
SOLO: (not quite certain how it goes but this is how i play it
       just throw in a lot of bends and random mish mashes of things)

E|---------6666666------------------------------|
B|-333333333333333-3P2--3333-5P3P0--------------|
G|--------------------0-----------2H4P0-2-4-2p0-|
D|----------------------------------------------|
A|----------------------------------------------|
E|----------------------------------------------|

E|-66-6-66-6-66--------------------------------|
B|-33-5-33-5-33-3H5P0-3H5P0-----3H5P0-33333333-|
G|-------------------4------4-0----------------|
D|---------------------------------------------|
A|---------------------------------------------|
E|---------------------------------------------|


Pre-Chorus

  They're so cool their style is never cramped
  Too much of everything and everyone is amped
E|-------------------------|
B|-------------------------|
G|-5-5-5-5-7-7-7-7---------|
D|-5-5-5-5-7-7-7-7-5-5-5-5-| x2
A|-3-3-3-3-5-5-5-5-5-5-5-5-|
E|-----------------3-3-3-3-|

Pre-chorus cont.

  Well, do't get hot and bothered listen, I know I got problems
  
E|-----------------------------------------|
B|-----------------------------------------|
G|-5-5-5-5-7-7-7-7---------9-9-9-9---------|
D|-5-5-5-5-7-7-7-7-5-5-5-5-9-9-9-9-7-7-7-7-|
A|-3-3-3-3-5-5-5-5-5-5-5-5-7-7-7-7-7-7-7-7-|
E|-----------------3-3-3-3---------5-5-5-5-|

Pre-chorus cont. 
  I also know just what this goofy world needs
E|-------------------------------------|
B|-------------------------------------|
G|-5-5-5-5-7-7-7-7-7-7-7-7-7-7-7-7-7-7-|
D|-5-5-5-5-7-7-7-7-7-7-7-7-7-7-7-7-7-7-|
A|-3-3-3-3-5-5-5-5-5-5-5-5-5-5-5-5-5-5-|
E|-------------------------------------|



CHORUS:
  Yummy yummy punk rock girls
E|----------------------------|
B|----------------------------|
G|----------------------------|
D|----------------------------|
A|----------------------------|
E|----------------------------|

          Yummy Yummy Punk rock girls x5
          I wish they all were punk rock girls
E|---------------------------------|
B|---------------------------------|
G|---------5-5-5-5-7-7-7-7-7-7-7-7-|
D|-5-5-5-5-5-5-5-5-7-7-7-7-7-7-7-7-|
A|-5-5-5-5-3-3-3-3-5-5-5-5-5-5-5-5-|
E|-3-3-3-3-------------------------|


END:
E|---------------------|
B|---------------------|
G|-6/7-77-6-7-6-7-6-77-|
D|-6/7-77-x-x-x-x-x-77-|
A|-4/5-55-4-5-4-5-4-55-|
E|---------------------|

E|----|
B|----|
G|-12-|
D|-x--|
A|-10-|
E|----|





Comments


Popular Queers tabs & chords
At The Mall 1 Bass Tabs
Half Shit Faced 1 Bass Tabs
Kicked Out Of The Webelos Bass Tabs
Like A Parasite 1 Bass Tabs
Wimpy Drives Through Harlem Bass Tabs
You're Tripping Bass Tabs
Half Shitfaced Chords
I Like Young Girls Tabs
Just Say Cunt Tabs
Psycho Over You Ukulele


Song lyrics



↑ Back to top | Tablatures and chords are parodies/interpretations of the original songs. You may use it for private study, scholarship, research or language learning purposes only
© 2014 AZChords.com Contact us | Privacy policy | DMCA | Add/correct tabs | Request tabs | Top 50 tabs