» » »

Queers, Number One Tabs (ver.1)

Artists:  A B C D E F G H I J K L M N O P Q R S T U V W X Y Z # 

Number One Tabs (ver.1)

Queers Tabs
 Rating:
4/5 (4 votes)
Number One lessons Tabs too difficult? Try these video lessons and learn fast
                e|-----------------------------------------------------------|
B|-----------------------------------------------------------|
G|--------------------------------------2---------------4----|
D|--2-----------------------------------2---------------4----|
A|--2---------------------------------------------------2----|
E|-----------------------------------------------------------|
    1verse: 
    I've been told many times before To think of number one 
    When I do I guess its true I think I'm having fun 
    
    2verse:
    Everytime I see youre face I get all choked up inside 
    When I'm far way from you i almost wanna hide 


e|---------------------------------------------------------------------|
B|---------------------------------------------------------------------|
G|------6-----------------------------------------4-------------2------|
D|------6-----------------------------------------4-------------2------|
A|------4-----------------------------------------2--------------------|
E|---------------------------------------------------------------------|
    bothverses:
    But lately all I ever do is think of you And now I know its true 
    no matter what you do,you're my number one You're my number one 




e|---------------------------------------------------------------------|
B|---------------------------------------------------------------------|
G|-------------------------------------------------------2----------4--|
D|--2----------------------------------------------------2----------4--|
A|--2---------------------------------------------------------------2--|
E|---------------------------------------------------------------------|
    bothverses:
    your my number one your my number one your my number one




e|-------------------------------------------------------------------|
B|-------------------------------------------------------------------|
G|-------------------------------------------------------------------|
D|-6------------7---------------6--------------------------------7---|
A|-6------------7---------------6--------------------------------7---|
E|-4------------5---------------4--------------------------------5---|
   
   No more will you be hurt So stick with me and I'll stick with you 
 


e|------------------------------------------------------|
B|------------------------------------------------------|
G|------------------------------------------------------|
D|-6--------7---------------------6---------------------|
A|-6--------7---------------------6---------------------|
E|-4--------5---------------------4---------------------|

   When its time for a kiss Now I know just what to do
            
Submit corrections

comments powered by Disqus
↑ Back to top | Queers Tabs for Number One. Lyrics for acoustic guitar and electric guitar. Tablatures and chords are parodies/interpretations of the original songs. You may use it for private study, scholarship, research or language learning purposes only