» » »

Queers, No Tit Tabs (ver.1)

Artists:  A B C D E F G H I J K L M N O P Q R S T U V W X Y Z # 

No Tit Tabs (ver.1)

Queers Tabs
 Rating:
4.3/5 (6 votes)
No Tit lessons Tabs too difficult? Try these video lessons and learn fast
                
I noticed that there was a lack of decent The Queers 
tabs on the internet, and therefore I've started to tab 
out as many as I can. So, there you go, the first track off 
"Don't Back Down", the classic tune "No Tit". 
Corrections: tobias(a)franticsound.dk

Intro guitar A:
E|---------------------------
B|---------------------------
G|--9999-----------9---------
D|--9999-7777-9999-9-9999----
A|--7777-7777-9999-7-9999----
E|-------5555-7777---7777----

Intro guitar B:
E|--------------------------
B|--------------------------
G|--------------------9-----
D|--9-7-6-------6-7-9---9---
A|--------9-7-9-------------
E|--------------------------

Verse guitars A+B:
E|----------------------------
B|----------------------------
G|--9999-----------9----------
D|--9999-7777-9999-9-9999-----
A|--7777-7777-9999-7-9999-----
E|-------5555-7777---7777—----

Pre-chorus guitars A+B:
E|----------------------------------------
B|----------------------------------------
G|-------9999------9999------9999---------
D|--7777-9999-7777-9999-7777-9999-999999--
A|--7777-7777-7777-7777-7777-7777-999999--
E|--5555------5555------5555------777777--

Chorus A+B:
E|-------------------------------------------------
B|-------------------------------------------------
G|--9999------9999------9999-----------9999--------
D|--9999-9999-9999-9999-9999-9999-7777-9999-9999---
A|--7777-9999-7777-9999-7777-9999-7777-7777-9999---
E|-------7777------7777--—---7777-5555------7777—--

Yadda, yadda, yadda, just repeat everything, it's as simple as it gets.

Outro:
Verse guitars A+B:
E|--------------------
B|--------------------
G|--9~~-----9~~-------
D|--9~~-9~~-9~~-------
A|--7~~-9~~-7~~-------
E|------7~~-----------
            
Submit corrections

comments powered by Disqus
↑ Back to top | Queers Tabs for No Tit. Lyrics for acoustic guitar and electric guitar. Tablatures and chords are parodies/interpretations of the original songs. You may use it for private study, scholarship, research or language learning purposes only