» » »

Queers, Journey To The Center Of Your Empty Fucking Skull Tabs (ver.1)

Artists:  A B C D E F G H I J K L M N O P Q R S T U V W X Y Z # 

Journey To The Center Of Your Empty Fucking Skull Tabs (ver.1)

Queers Tabs
 Rating:
4/5 (4 votes)
Journey To The Center Of Your Empty Fucking Skull lessons Tabs too difficult? Try these video lessons and learn fast
1
                Journey To The Center Of Your Empty f**king Skull - The Queers
Beyond The Valley Of The Assf**kers

Tuning: EADGBE

e|------------------------------------------------------------------------------------|
B|------------------------------------------------------------------------------------|
G|------------------------------------------------------------------------------------|
D|------------8-8-8--------------8-8-8--------------8-8-10-10-12-12-12-12-12-12-12-12-|
A|-10-10-10-8-6-6-6-8-10-10-10-8-6-6-6-8-10-10-10-8-6-6--8--8-10-10-10-10-10-10-10-10-|
E|--8--8--8-6-------6--8--8--8-6-------6--8--8--8-6-----------------------------------| x2

e|-----------------------------------------------------------------|
B|-----------------------------------------------------------------|
G|-----------------------------------------------------------------|
D|-5-5-5-5-5-5-5-5-8-8-8-8-5-5-5-5-----------------5-5-5-5-5-5-5-5-|
A|-3-3-3-3-3-3-3-3-6-6-6-6-3-3-3-3-5-5-5-5-5-5-5-5-3-3-3-3-3-3-3-3-|
E|---------------------------------3-3-3-3-3-3-3-3-----------------| x2

e|-------------------------------------------------|
B|-------------------------------------------------|
G|-------------------------------------------------|
D|-12-12-12-12-12-12-12-12-------------------------|
A|-10-10-10-10-10-10-10-10-10-10-10-10-10-10-10-10-|
E|--------------------------8--8--8--8--8--8--8--8-| x3

e|-------------------------------------------------|
B|-------------------------------------------------|
G|-------------------------------------------------|
D|-10-10-10-10-10-10-10-10-12-12-12-12-12-12-12-12-|
A|--8--8--8--8--8--8--8--8-10-10-10-10-10-10-10-10-|
E|-------------------------------------------------|

e|-----------------------------------------------------------------|
B|-----------------------------------------------------------------|
G|-----------------------------------------------------------------|
D|-5-5-5-5-5-5-5-5-8-8-8-8-5-5-5-5-5-5-5-5-8-8-8-8-5-5-5-5-8-8-8-8-|
A|-3-3-3-3-3-3-3-3-6-6-6-6-3-3-3-3-3-3-3-3-6-6-6-6-3-3-3-3-6-6-6-6-|
E|-----------------------------------------------------------------|

e|-------------------------------------------|
B|-------------------------------------------|
G|-------------------------------------------|
D|-5-5-5-5-8-8-10-10-12-12-12-12-12-12-12-12-|
A|-3-3-3-3-6-6--8--8-10-10-10-10-10-10-10-10-|
E|-------------------------------------------|

e|-----------------------------------------------------------------|
B|-----------------------------------------------------------------|
G|-----------------------------------------------------------------|
D|-5-5-5-5-5-5-5-5-8-8-8-8-5-5-5-5-----------------5-5-5-5-5-5-5-5-|
A|-3-3-3-3-3-3-3-3-6-6-6-6-3-3-3-3-5-5-5-5-5-5-5-5-3-3-3-3-3-3-3-3-|
E|---------------------------------3-3-3-3-3-3-3-3-----------------|


e|-------------------------------------------------|
B|-------------------------------------------------|
G|-------------------------------------------------|
D|-12-12-12-12-12-12-12-12-------------------------|
A|-10-10-10-10-10-10-10-10-10-10-10-10-10-10-10-10-|
E|--------------------------8--8--8--8--8--8--8--8-| x3

e|-------------------------------------------------|
B|-------------------------------------------------|
G|-------------------------------------------------|
D|-10-10-10-10-10-10-10-10-12-12-12-12-12-12-12-12-|
A|--8--8--8--8--8--8--8--8-10-10-10-10-10-10-10-10-|
E|-------------------------------------------------|

e|-----------------------------------------------------------------|
B|-----------------------------------------------------------------|
G|-----------------------------------------------------------------|
D|-5-5-5-5-5-5-5-5-8-8-8-8-5-5-5-5-5-5-5-5-8-8-8-8-5-5-5-5-8-8-8-8-|
A|-3-3-3-3-3-3-3-3-6-6-6-6-3-3-3-3-3-3-3-3-6-6-6-6-3-3-3-3-6-6-6-6-|
E|-----------------------------------------------------------------|

e|-------------------------------------------|
B|-------------------------------------------|
G|-------------------------------------------|
D|-5-5-5-5-8-8-10-10-12-12-12-12-12-12-12-12-|
A|-3-3-3-3-6-6--8--8-10-10-10-10-10-10-10-10-|
E|-------------------------------------------| 

e|-------------------------------------------------------------------------|
B|-------------------------------------------------------------------------|
G|-------------------------------------------------------------------------|
D|-5-5-5-5-8-8-8-8-5-5-5-5-8-8-8-8-5-5-5-5-8-8-8-8-12-12-12-12-12-12-12-12-|
A|-3-3-3-3-6-6-6-6-3-3-3-3-6-6-6-6-3-3-3-3-6-6-8-8-10-10-10-10-10-10-10-10-|
E|-------------------------------------------------------------------------| x2

e|-----------------------------------------------------------------|
B|-----------------------------------------------------------------|
G|-----------------------------------------------------------------|
D|-5-5-5-5-5-5-5-5-8-8-8-8-5-5-5-5-----------------5-5-5-5-5-5-5-5-|
A|-3-3-3-3-3-3-3-3-6-6-6-6-3-3-3-3-5-5-5-5-5-5-5-5-3-3-3-3-3-3-3-3-|
E|---------------------------------3-3-3-3-3-3-3-3-----------------| x2

e|-------------------------------------------------|
B|-------------------------------------------------|
G|-------------------------------------------------|
D|-12-12-12-12-12-12-12-12-------------------------|
A|-10-10-10-10-10-10-10-10-10-10-10-10-10-10-10-10-|
E|--------------------------8--8--8--8--8--8--8--8-| x3

e|-------------------------------------------------|
B|-------------------------------------------------|
G|-------------------------------------------------|
D|-10-10-10-10-10-10-10-10-12-12-12-12-12-12-12-12-|
A|--8--8--8--8--8--8--8--8-10-10-10-10-10-10-10-10-|
E|-------------------------------------------------|

e|-------------------------------------------------------------------------|
B|-------------------------------------------------------------------------|
G|-------------------------------------------------------------------------|
D|-5-5-5-5-8-8-8-8-5-5-5-5-8-8-8-8-5-5-5-5-8-8-8-8-12-12-12-12-12-12-12-12-|
A|-3-3-3-3-6-6-6-6-3-3-3-3-6-6-6-6-3-3-3-3-6-6-8-8-10-10-10-10-10-10-10-10-|
E|-------------------------------------------------------------------------| x2

e|------------------------------------------------------------------------------|
B|------------------------------------------------------------------------------|
G|-------------------------------------------------------------------------5----|
D|-5-5-5-5-8-8-8-8-5-5-5-5-8-8-8-8-5-5-5-5-8-8-8-8-12-12-12-12-12-12-12-12-5----|
A|-3-3-3-3-6-6-6-6-3-3-3-3-6-6-6-6-3-3-3-3-6-6-8-8-10-10-10-10-10-10-10-10-3----|
E|------------------------------------------------------------------------------|


| /  slide up
| \  slide down
| h  hammer-on
| p  pull-off
| ~  vibrato
| +  harmonic
| x  Mute note
            
Submit corrections

comments powered by Disqus
↑ Back to top | Queers Tabs for Journey To The Center Of Your Empty Fucking Skull. Lyrics for acoustic guitar and electric guitar. 1 Tablatures and chords are parodies/interpretations of the original songs. You may use it for private study, scholarship, research or language learning purposes only