» » »

Queers, It's Cold Outside Tabs (ver.1)

Artists:  A B C D E F G H I J K L M N O P Q R S T U V W X Y Z # 

It's Cold Outside Tabs (ver.1)

Queers Tabs
 Rating:
4/5 (4 votes)
It's Cold Outside lessons Tabs too difficult? Try these video lessons and learn fast
                Intro
|---------------------------------------|
|---------------------------------------|
|--------------7-7-7-7--7--6------------|
|--drums+bass--7-7-7-7--7--6-7-7-7-7-7--|
|--------------5-5-5-5--5--4-7-7-7-7-7--|
|----------------------------5-5-5-5-5--|

Verse
|------------------------------------------------------|     |
|------------------------------------------------------|     |
|--7--7-7--7-7---------------7--7-7--7-7---------------|     |
|--7--7-7--7-7--9--9-9--9-9--7--7-7--7-7--9--9-9--9-9--|     |
|--5--5-5--5-5--9--9-9--9-9--5--5-5--5-7--9--9-9--9-9--|     |
|---------------7--7-7--7-7---------------7--7-7--7-7--|     |
                                                             | x2
|----------------------------------------------------------| | 
|----------------------------------------------------------| |
|----------------------------7--7-7--7-7-------------------| |
|--5--5-5--5-5--7--7-7--7-7--7--7-7--7-7--7-7-7-7-7-7-7-7--| |
|--5--5-5--5-5--7--7-7--7-7--5--5-5--5-5--7-7-7-7-7-7-7-7--| | 
|--3--3-3--3-3--5--5-5--5-5---------------5-5-5-5-5-5-5-5--| |

Chorus/Bridge Rhythm
|-------------------------------------------------------------------| |
|-------------------------------------------------------------------| |
|--7-7-7-7-7-7-7-7-7-7-7-7-7-7-7-7----------------------------------| |
|--7-7-7-7-7-7-7-7-7-7-7-7-7-7-7-7-9-9-9-9-9-9-9-9-9-9-9-9-9-9-9-9--| |
|--5-5-5-5-5-5-5-5-5-5-5-5-5-5-5-5-9-9-9-9-9-9-9-9-9-9-9-9-9-9-9-9--| |
|----------------------------------7-7-7-7-7-7-7-7-7-7-7-7-7-7-7-7--| |
                                                                      | x3
|-------------------------------------------------------------------| |
|-------------------------------------------------------------------| |
|----------------------------------7-7-7-7-7-7-7-7------------------| |
|--5-5-5-5-5-5-5-5-7-7-7-7-7-7-7-7-7-7-7-7-7-7-7-7-7-7-7-7-7-7-7-7--| |
|--5-5-5-5-5-5-5-5-7-7-7-7-7-7-7-7-5-5-5-5-5-5-5-5-7-7-7-7-7-7-7-7--| |
|--3-3-3-3-3-3-3-3-5-5-5-5-5-5-5-5-----------------5-5-5-5-5-5-5-5--| |

Bridge Lead
|------------------------------------------------------------------|
|--8-87-777-8-87-777-------------------------------------8-87-777--|
|--7-77-777-7-77-777----7--------7--------7--------9-----7-77-777--|
|--------------------9-9--999-9-9--999-5-5--555-7-7--777-----------|
|------------------------------------------------------------------|
|------------------------------------------------------------------|

Last Chorus
|-------------------|
|-------------------|
|-------------------|
|--7-7-7-7-7-7-7-7--|
|--7-7-7-7-7-7-7-7--|
|--5-5-5-5-5-5-5-5--|

|-------------------------------------------------------------------| 
|-------------------------------------------------------------------|
|--9-9-9-9-9-9-9-9-9-9-9-9-9-9-9-9-6-6-6-6-6-6-6-6-6-6-6-6-6-6-6-6--| 
|--9-9-9-9-9-9-9-9-9-9-9-9-9-9-9-9-6-6-6-6-6-6-6-6-6-6-6-6-6-6-6-6--| 
|--7-7-7-7-7-7-7-7-7-7-7-7-7-7-7-7-4-4-4-4-4-4-4-4-4-4-4-4-4-4-4-4--| 
|-------------------------------------------------------------------|
                                                                      
|-------------------------------------------------------------------| 
|-------------------------------------------------------------------| 
|----------------------------------9-9-9-9-9-9-9-9------------------| 
|--7-7-7-7-7-7-7-7-9-9-9-9-9-9-9-9-9-9-9-9-9-9-9-9-9-9-9-9-9-9-9-9--| 
|--7-7-7-7-7-7-7-7-9-9-9-9-9-9-9-9-7-7-7-7-7-7-7-7-9-9-9-9-9-9-9-9--| 
|--5-5-5-5-5-5-5-5-7-7-7-7-7-7-7-7-----------------7-7-7-7-7-7-7-7--| 

|-------------------------------------------------------------------| 
|-------------------------------------------------------------------|
|--9-9-9-9-9-9-9-9-9-9-9-9-9-9-9-9-6-6-6-6-6-6-6-6-6-6-6-6-6-6-6-6--| 
|--9-9-9-9-9-9-9-9-9-9-9-9-9-9-9-9-6-6-6-6-6-6-6-6-6-6-6-6-6-6-6-6--| 
|--7-7-7-7-7-7-7-7-7-7-7-7-7-7-7-7-4-4-4-4-4-4-4-4-4-4-4-4-4-4-4-4--| 
|-------------------------------------------------------------------|

|-------------------------------------------------------------------| 
|-------------------------------------------------------------------| 
|----------------------------------9-9-9-9-9-9-9-9-6-6-6-6-6-6-6-6--| x2
|--7-7-7-7-7-7-7-7-9-9-9-9-9-9-9-9-9-9-9-9-9-9-9-9-6-6-6-6-6-6-6-6--| 
|--7-7-7-7-7-7-7-7-9-9-9-9-9-9-9-9-7-7-7-7-7-7-7-7-4-4-4-4-4-4-4-4--| 
|--5-5-5-5-5-5-5-5-7-7-7-7-7-7-7-7----------------------------------|

|--------------------------------------|                                    
|--------------------------------------| 
|----------------------------------9~--| 
|--7-7-7-7-7-7-7-7-9-9-9-9-9-9-9-9-9~--| 
|--7-7-7-7-7-7-7-7-9-9-9-9-9-9-9-9-7~--| 
|--5-5-5-5-5-5-5-5-7-7-7-7-7-7-7-7-----|
            
Submit corrections

comments powered by Disqus
↑ Back to top | Queers Tabs for It's Cold Outside. Lyrics for acoustic guitar and electric guitar. Tablatures and chords are parodies/interpretations of the original songs. You may use it for private study, scholarship, research or language learning purposes only