» » »

Queers, I Like Young Girls Tabs (ver.1)

Artists:  A B C D E F G H I J K L M N O P Q R S T U V W X Y Z # 

I Like Young Girls Tabs (ver.1)

Queers Tabs
Rating:
0/5 (0 votes)
Hard to play? Try these video lessons and learn fast.
                I Like Young Girls - The Queers
A Day Late And A Dollar Short

Tuning: Both guitars are in standard tuning

e|-------------------------------------------------|
B|-------------------------------------------------|
G|-12-12-12-12-------------------------14----14----|
D|-12-12-12-12-12-12-12-12-14-14-14-14-14-14-14-14-|
A|-10-10-10-10-12-12-12-12-14-14-14-14-12-14-12-14-|
E|-------------10-10-10-10-12-12-12-12----12----12-| x4

e|-------------------------------------------------|
B|-------------------------------------------------|
G|-12-12-12-12-------------------------------------|
D|-12-12-12-12-12-12-12-12-14-14-14-14-14-14-14-14-|
A|-10-10-10-10-12-12-12-12-14-14-14-14-14-14-14-14-|
E|-------------10-10-10-10-12-12-12-12-12-12-12-12-| x4

e|-------------------------------------------------------------------------------|
B|-------------------------------------------------------------------------------|
G|-------------------------------------------------------------------------------|
D|-12-9-12-9-9-9-9-9-12-9-12-9-9-9-9-9-12-9-12-9-9-9-9-9-12-9-12-9-9-9-9-9-9-9-9-|
A|-12-9-12-9-9-9-9-9-12-9-12-9-9-9-9-9-12-9-12-9-9-9-9-9-12-9-12-9-9-9-9-9-9-9-9-|
E|-10-7-10-7-7-7-7-7-10-7-10-7-7-7-7-7-10-7-10-7-7-7-7-7-10-7-10-7-7-7-7-7-7-7-7-|

e|-------------------------------------------------|
B|-------------------------------------------------|
G|-12-12-12-12-------------------------------------|
D|-12-12-12-12-12-12-12-12-14-14-14-14-14-14-14-14-|
A|-10-10-10-10-12-12-12-12-14-14-14-14-14-14-14-14-|
E|-------------10-10-10-10-12-12-12-12-12-12-12-12-| x4

e|-------------------------------------------------------------------------------|
B|-------------------------------------------------------------------------------|
G|-------------------------------------------------------------------------------|
D|-12-9-12-9-9-9-9-9-12-9-12-9-9-9-9-9-12-9-12-9-9-9-9-9-12-9-12-9-9-9-9-9-9-9-9-|
A|-12-9-12-9-9-9-9-9-12-9-12-9-9-9-9-9-12-9-12-9-9-9-9-9-12-9-12-9-9-9-9-9-9-9-9-|
E|-10-7-10-7-7-7-7-7-10-7-10-7-7-7-7-7-10-7-10-7-7-7-7-7-10-7-10-7-7-7-7-7-7-7-7-|

e|-----------------------------------------------------------------------------------------|
B|-----------------------------------------------------------------------------------------|
G|---------12-12-12-12---------------------------------12-12-12-12----------------14----14-|
D|-9-9-9-9-12-12-12-12-12-12-12-12-14-14-14-14-9-9-9-9-12-12-12-12-12-12-12-12-14-14-14-14-|
A|-9-9-9-9-10-10-10-10-12-12-12-12-14-14-14-14-9-9-9-9-10-10-10-10-12-12-12-12-14-12-14-12-|
E|-7-7-7-7-------------10-10-10-10-12-12-12-12-7-7-7-7-------------10-10-10-10-12----12----|

e|---------------------------------------------|
B|---------------------------------------------|
G|---------12-12-12-12-------------------------|
D|-9-9-9-9-12-12-12-12-12-12-12-12-14-14-14-14-|
A|-9-9-9-9-10-10-10-10-12-12-12-12-14-14-14-14-|
E|-7-7-7-7-------------10-10-10-10-12-12-12-12-| x2

e|-------------------------------------------------------------------------------|
B|-------------------------------------------------------------------------------|
G|-------------------------------------------------------------------------------|
D|-12-9-12-9-9-9-9-9-12-9-12-9-9-9-9-9-12-9-12-9-9-9-9-9-12-9-12-9-9-9-9-9-9-9-9-|
A|-12-9-12-9-9-9-9-9-12-9-12-9-9-9-9-9-12-9-12-9-9-9-9-9-12-9-12-9-9-9-9-9-9-9-9-|
E|-10-7-10-7-7-7-7-7-10-7-10-7-7-7-7-7-10-7-10-7-7-7-7-7-10-7-10-7-7-7-7-7-7-7-7-|

e|-------------------------------------------------|
B|-------------------------------------------------|
G|-12-12-12-12-------------------------------------|
D|-12-12-12-12-12-12-12-12-14-14-14-14-14-14-14-14-|
A|-10-10-10-10-12-12-12-12-14-14-14-14-14-14-14-14-|
E|-------------10-10-10-10-12-12-12-12-12-12-12-12-| x4

e|-------------------------------------------------------------------------------|
B|-------------------------------------------------------------------------------|
G|-------------------------------------------------------------------------------|
D|-12-9-12-9-9-9-9-9-12-9-12-9-9-9-9-9-12-9-12-9-9-9-9-9-12-9-12-9-9-9-9-9-9-9-9-|
A|-12-9-12-9-9-9-9-9-12-9-12-9-9-9-9-9-12-9-12-9-9-9-9-9-12-9-12-9-9-9-9-9-9-9-9-|
E|-10-7-10-7-7-7-7-7-10-7-10-7-7-7-7-7-10-7-10-7-7-7-7-7-10-7-10-7-7-7-7-7-7-7-7-|

e|-------------------------------------------------|
B|-------------------------------------------------|
G|-12-12-12-12-------------------------------------|
D|-12-12-12-12-12-12-12-12-14-14-14-14-14-14-14-14-|
A|-10-10-10-10-12-12-12-12-14-14-14-14-14-14-14-14-|
E|-------------10-10-10-10-12-12-12-12-12-12-12-12-| x3

e|-------------------------------|
B|-------------------------------|
G|-12-12-12-12-------------------|
D|-12-12-12-12-12-12-12-12-14----|
A|-10-10-10-10-12-12-12-12-14----|
E|-------------10-10-10-10-12----|


| /  slide up
| \  slide down
| h  hammer-on
| p  pull-off
| ~  vibrato
| +  harmonic
| x  Mute note
            

comments powered by Disqus
↑ Back to top | Queers Tabs for I Like Young Girls. Lyrics for acoustic guitar and electric guitar. Tablatures and chords are parodies/interpretations of the original songs. You may use it for private study, scholarship, research or language learning purposes only