» » »

I Hate Everything Tabs (ver.1)

Artists:  A B C D E F G H I J K L M N O P Q R S T U V W X Y Z # 

I Hate Everything Tabs (ver.1)

Queers
Rating:
5/5 (1 vote)

Hard to play? Try these video lessons and learn fast.
                I Hate Everything - The Queers
Love Songs For The Retarded

Tuning: Standard for both guitars

Guitar 1:
e|---------------------------------|
B|---------------------------------|
G|-2-2-2-2-2-2-5---2-2-2-2-2-2-5---|
D|-2-2-2-2-2-2-5-5-2-2-2-2-2-2-5-5-|
A|-0-0-0-0-0-0-3-5-0-0-0-0-0-0-3-5-|
E|---------------3---------------3-|
Guitar 2:
e|---------------------------------|
B|---------------------------------|
G|-----------------------------5---|
D|-----------------------------5-5-|
A|-----------------------------3-5-|
E|-------------------------------3-|

Guitars 1 & 2:          Guitars 1 & 2:
e|-----------------|    e|---------------------------------|
B|-----------------|    B|---------------------------------|
G|-2-2-2-2-2-2-5---|    G|-----------------2-2-7-5-2-2-2-2-|
D|-2-2-2-2-2-2-5-5-|    D|-2-2-2-2-5-5-5-5-2-2-7-5-2-2-2-2-|
A|-0-0-0-0-0-0-3-5-|    A|-2-2-2-2-5-5-5-5-0-0-5-3-0-0-0-0-|
E|---------------3-| x6 E|-0-0-0-0-3-3-3-3-----------------| x2

Guitar 2
e|-5-5-5-5-5-5-------------------5-5-5-5-5-5--------------------|
B|-5-5-5-5-5-5-3---3-5-3---------5-5-5-5-5-5-8-5-3--------------|
G|---------------5--------5-2-----------------------5-2--5-2----|
D|--------------------------------------------------------------|
A|--------------------------------------------------------------|
E|--------------------------------------------------------------|
Guitar 1
B|-----------------|
B|-----------------|
G|-2-2-2-2-2-2-5---|
D|-2-2-2-2-2-2-5-5-|
A|-0-0-0-0-0-0-3-5-|
E|---------------3-| x4

Guitars 1 & 2:          Guitars 1 & 2:
e|-----------------|    e|---------------------------------|
B|-----------------|    B|---------------------------------|
G|-2-2-2-2-2-2-5---|    G|-----------------2-2-7-5-2-2-2-2-|
D|-2-2-2-2-2-2-5-5-|    D|-2-2-2-2-5-5-5-5-2-2-7-5-2-2-2-2-|
A|-0-0-0-0-0-0-3-5-|    A|-2-2-2-2-5-5-5-5-0-0-5-3-0-0-0-0-|
E|---------------3-| x4 E|-0-0-0-0-3-3-3-3-----------------| x2

Guitar 2
e|-5^--5^--5^--5^--5^--5^--5^--5^--12^--12^--12^--12^--12^--12^--12\------|
B|-5^--5^--5^--5^--5^--5^--5^--5^--12^--12^--12^--12^--12^--12^--12\------|
G|--------------------------------------------------------------------5---|
D|--------------------------------------------------------------------5-5-|
A|--------------------------------------------------------------------3-5-|
E|----------------------------------------------------------------------3-|
Guitar 1:
B|-----------------|
B|-----------------|
G|-2-2-2-2-2-2-5---|
D|-2-2-2-2-2-2-5-5-|
A|-0-0-0-0-0-0-3-5-|
E|---------------3-| x4

Guitars 1 & 2:          Guitars 1 & 2:
e|-----------------|    e|---------------------------------|
B|-----------------|    B|---------------------------------|
G|-2-2-2-2-2-2-5---|    G|-----------------2-2-7-5-2-2-2-2-|
D|-2-2-2-2-2-2-5-5-|    D|-2-2-2-2-5-5-5-5-2-2-7-5-2-2-2-2-|
A|-0-0-0-0-0-0-3-5-|    A|-2-2-2-2-5-5-5-5-0-0-5-3-0-0-0-0-|
E|---------------3-| x8 E|-0-0-0-0-3-3-3-3-----------------| x3

Guitars 1 & 2:
e|-----------------------------------------|
B|-----------------------------------------|
G|-----------------2-2-7-5-2-2-2-2-2-2-2-2-|
D|-2-2-2-2-5-5-5-5-2-2-7-5-2-2-2-2-2-2-2-2-|
A|-2-2-2-2-5-5-5-5-0-0-5-3-0-0-0-0-0-0-0-0-|
E|-0-0-0-0-3-3-3-3-------------------------|


| ^  half note bend
| /  slide up
| \  slide down
| h  hammer-on
| p  pull-off
| ~  vibrato
| +  harmonic
| x  Mute note
            
Hard to play? Try these video lessons and learn fast. | Correct




comments powered by Disqus
↑ Back to top | Tablatures and chords are parodies/interpretations of the original songs. You may use it for private study, scholarship, research or language learning purposes only