» » »

I Don't Want You Hanging Around Tabs (ver.1)

Artists:  A B C D E F G H I J K L M N O P Q R S T U V W X Y Z # 

I Don't Want You Hanging Around Tabs (ver.1)

Queers
Rating:
0/5 (0 votes)

Hard to play? Try these video lessons and learn fast.
                Verse/Intro
       
      G      D     C     G

e|------------------------------
B|---------7-7-7-5-5-5----------
G|---------7-7-7-5-5-5----------
D|---5-5-5-5-5-5-3-3-3-5-5-5----
A|---5-5-5-------------5-5-5----
E|---3-3-3-------------3-3-3----


Chorus

e|-----------------------------
B|-----------------------------
G|---------5-5-5-7-7-7---------
D|---5-5-5-5-5-5-7-7-7---------
A|---5-5-5-3-3-3-5-5-5---------
E|---3-3-3---------------------


"Wannnnnt...youuuu...arounddd....."

e|-----------------------------
B|-----------------------------
G|-----5-5-5-7-7-7-------------
D|-----5-5-5-7-7-7-------------
A|-----3-3-3-5-5-5-------------
E|-----------------------------
            
Hard to play? Try these video lessons and learn fast. | Correct




comments powered by Disqus
↑ Back to top | Tablatures and chords are parodies/interpretations of the original songs. You may use it for private study, scholarship, research or language learning purposes only