>
 >
I Don't Get It

I Don't Get It Guitar Tabs

Queers - I Don't Get It chords, tabs, tablatures, lyrics

Guitar lessons | Add/correct | Request | Top 50 tabs Artists:  A B C D E F G H I J K L M N O P Q R S T U V W X Y Z 0-9

I Don't Get It Guitar Tabs – Queers

CD, Sheet music, Poster

Do you like I Don't Get It? Share with your friends now
Tabs
Tuning: Standard
*Intro repeat twice
e|--------------------------------------------------------------------------|
B|--------------------------------------------------------------------------|
G|-8/9-9-9-9-9-9-9-9-9-9----------------------------------------------------|
D|-8/9-9-9-9-9-9-9-9-9-9-9-9-9-9-9-9-9-9-9----------------------------------|
A|-6/7-7-7-7-7-7-7-7-7-7-9-9-9-9-9-9-9-9-9----------------------------------|
E|-----------------------7-7-7-7-7-7-7-7-7----------------------------------|

e|--------------------------------------------------------------------------|
B|--------------------------------------------------------------------------|
G|-9-------------------------------------------------------------------9----|
D|-9--------------------9------------------------------7---------------9----|
A|-7--------------------9------------------------------7---------------7----|
E|----------------------7------------------------------5--------------------|
   Thinking out loud on a marshmallow cloud 'cause the sun is still in hiding

e|--------------------------------------------------------------------------|
B|--------------------------------------------------------------------------|
G|-9--------------------------------------------------------9---------------|
D|-9--------------------9--------------7--------------------9---------------|
A|-7--------------------9--------------7--------------------7---------------|
E|----------------------7--------------5------------------------------------|
   I won't go back as a matter of fact and I'll put that in writing

e|--------------------------------------------------------------------------|
B|--------------------------------------------------------------------------|
G|-----------------------------------9--------------------------------------|
D|-7---------------------------------9--------------------------------------|
A|-7---------------------------------7--------------------------------------|
E|-5------------------------------------------------------------------------|
  If I never see you then I'll never cry all night 

e|--------------------------------------------------------------------------|
B|--------------------------------------------------------------------------|
G|---------------------------------9----------------------------------------|
D|-7-------------------------------9----------------------------------------|
A|-7-------------------------------7----------------------------------------|
E|-5------------------------------------------------------------------------|
   like a kid with a bellyache again 

e|--------------------------------------------------------------------------|
B|--------------------------------------------------------------------------|
G|---------------------------------------9----------------------------------|
D|-7-------------------------------------9---------------7------------------|
A|-7-------------------------------------7---------------7------------------|
E|-5-----------------------------------------------------5------------------|
   you know too much sugar always made me oh so sick and I always regret it
e|--------------------------------------------------------------------------|
B|--------------------------------------------------------------------------|
G|--------------------------------------------------------------------------|
D|-----------9--------------------------------------------------------------|
A|-----------9--------------------------------------------------------------|
E|-----------7--------------------------------------------------------------|
   in the end
CHORUS:

e|--------------------------------------------------------------------------|
B|--------------------------------------------------------------------------|
G|-9-9-----9-9-----9-9-----9-9-----9-9-----9-9------------------------------|
D|-9-9-9-9-9-9-9-9-9-9-9-9-9-9-9-9-9-9-9-9-9-9-9-9--------------------------|
A|-7-7-9-9-7-7-9-9-7-7-9-9-7-7-9-9-7-7-9-9-7-7-9-9--------------------------|
E|-----7-7-----7-7-----7-7-----7-7-----7-7-----7-7--------------------------|
  I don't get it I don't get it why don't you do away
  I don't want you sending any candy kisses my way
  I don't get it I don't get it why don't you go away

e|--------------------------------------------------------------------------|
B|--------------------------------------------------------------------------|
G|--------------------------------------------------------------------------|
D|-7---------------------------------9--------------------------------------|
A|-7---------------------------------9--------------------------------------|
E|-5---------------------------------7--------------------------------------|
   now I'm getting back up on my feet
   'cause I thought that we agreed

e|--------------------------------------------------------------------------|
B|--------------------------------------------------------------------------|
G|--------------------------------------------------------------------------|
D|-7------------------9-----------7---------9-------------------------------|
A|-7------------------9-----------7---------9-------------------------------|
E|-5------------------7-----------5---------7-------------------------------|
   that it don't make sense to be more than friends

e|--------------------------------------------------------------------------|
B|--------------------------------------------------------------------------|
G|----------------------------------8/9-9-9-9-9-9-9-9-9-9-------------------|
D|-7------------------9-------------8/9-9-9-9-9-9-9-9-9-9-9-9-9-9-9-9-9-9-9-|
A|-7------------------9-------------6/7-7-7-7-7-7-7-7-7-7-9-9-9-9-9-9-9-9-9-|
E|-5------------------7-----------------------------------7-7-7-7-7-7-7-7-7-|
   when its always bitter and sweet GO!

THE GUITAR SOLO twice

e|----------7--------------------5--4--4p2p0--------------------------------|
B|-9--7--5-----9--7--5--0--2--5---------------------------------------------|
G|--------------------------------------------------------------------------|
D|--------------------------------------------------------------------------|
A|--------------------------------------------------------------------------|
E|--------------------------------------------------------------------------|

the rest is pretty much the same

************************************

| /   slide up
| \   slide down
| h   hammer-on
| p   pull-off
| ~   vibrato
| +   harmonic
| x   Mute note
| b   Bend
| pb  Pre-bend
| br  Bend release
| pbr Pre-bend release
| brb Bend release bend

************************************





Comments


Popular Queers tabs & chords
Didn't Want None 1 Bass Tabs
Punk Rock Girls Bass Tabs
This Place Sucks Bass Tabs
Hi Mom Chords
Tic Tic Toc Chords
Get Over You Tabs
Half Shitfaced Tabs
I Never Got The Girl Tabs
No Tit Tabs
Punk Rock Girls Ukulele


Song lyrics



↑ Back to top | Tablatures and chords are parodies/interpretations of the original songs. You may use it for private study, scholarship, research or language learning purposes only
© 2014 AZChords.com Contact us | Privacy policy | DMCA | Add/correct tabs | Request tabs | Top 50 tabs