» » »

Half Shit Faced Tabs (ver.1)

Artists:  A B C D E F G H I J K L M N O P Q R S T U V W X Y Z # 

Half Shit Faced Tabs (ver.1)

Queers
Rating:
5/5 (1 vote)

Hard to play? Try these video lessons and learn fast.
                The Queers- Half sh*tfaced
Standard tuning
EBGDAE

intro:
E|--------------------------|
B|--------------------------|
G|-6~-----------------------|
D|-6~-----------////////////|
A|-4~-----------////////////|
E|--------------////////////|

RIFF/SOLO:
E|----------------------------|
B|-9^9^9P7^9^9^9P7^9^9^9P7^9~-|
G|----------------------------|
D|----------------------------|
A|----------------------------|
E|----------------------------|

vERSE: 
  I think paying f**kin' rent sucks.
  I'm sorry I swore mom, aw shucks.
  I spilled a beer in the living room.
  I know I shouldn't be drunk at noon.
E|---------------------|
B|---------------------|
G|-6-6-6-6-6-6-9-9-----|
D|-6-6-6-6-6-6-9-9-9-9-| x8
A|-4-4-4-4-4-4-7-7-9-9-|
E|-----------------7-7-|

CHORUS:
                            Half sh*t-faced!
E|------------------------------------------|
B|------------------------------------------|
G|------------------------------------------|
D|-6-6-6-6-7-7-7-7-6-6-6-6-7----------------|
A|-6-6-6-6-7-7-7-7-6-6-6-6-7----------------|
E|-4-4-4-4-5-5-5-5-4-4-4-4-5----------------|

                                    Half sh*t-Faced!
E|--------------------------------------------------|
B|--------------------------------------------------|
G|-6-6-6-6-6-6-9-9-----6-6-6-6-6-6-9----------------|
D|-6-6-6-6-6-6-9-9-9-9-6-6-6-6-6-6-9----------------| x2
A|-4-4-4-4-4-4-7-7-9-9-4-4-4-4-4-4-7----------------|
E|-----------------7-7------------------------------|
                                     
                                     Go!
E|----------------------------------------|
B|----------------------------------------|
G|-6-6-6-6-6-6-9-9-----6-6-6-6-6-6-9------|
D|-6-6-6-6-6-6-9-9-9-9-6-6-6-6-6-6-9------| 
A|-4-4-4-4-4-4-7-7-9-9-4-4-4-4-4-4-7------|
E|-----------------7-7--------------------|


RIFF/SOLO:
E|----------------------------|
B|-9^9^9P7^9^9^9P7^9^9^9P7^9~-|
G|----------------------------|
D|----------------------------|
A|----------------------------|
E|----------------------------|

vERSE: 
  Our ex-guitarist sucks.
  He ripped us off two hundred bucks.
  his girlfriend's got a f**king fat ass
  And an ugly face to match.
E|---------------------|
B|---------------------|
G|-6-6-6-6-6-6-9-9-----|
D|-6-6-6-6-6-6-9-9-9-9-| x8
A|-4-4-4-4-4-4-7-7-9-9-|
E|-----------------7-7-|

CHORUS:
                            Half sh*t-faced!
E|------------------------------------------|
B|------------------------------------------|
G|------------------------------------------|
D|-6-6-6-6-7-7-7-7-6-6-6-6-7----------------|
A|-6-6-6-6-7-7-7-7-6-6-6-6-7----------------|
E|-4-4-4-4-5-5-5-5-4-4-4-4-5----------------|

                                    Half sh*t-Faced!
E|--------------------------------------------------|
B|--------------------------------------------------|
G|-6-6-6-6-6-6-9-9-----6-6-6-6-6-6-9----------------|
D|-6-6-6-6-6-6-9-9-9-9-6-6-6-6-6-6-9----------------| x2
A|-4-4-4-4-4-4-7-7-9-9-4-4-4-4-4-4-7----------------|
E|-----------------7-7------------------------------|
                                     
                                     Go!
E|----------------------------------------|
B|----------------------------------------|
G|-6-6-6-6-6-6-9-9-----6-6-6-6-6-6-9------|
D|-6-6-6-6-6-6-9-9-9-9-6-6-6-6-6-6-9------| 
A|-4-4-4-4-4-4-7-7-9-9-4-4-4-4-4-4-7------|
E|-----------------7-7--------------------|

RIFF/SOLO:

E|---------------12----12-------12-------|
B|-9^9^9^9^9&9H12--7H9^--9^9P7^9--9h12---|
G|---------------------------------------|
D|---------------------------------------| X2
A|---------------------------------------|
E|---------------------------------------|

CHORUS:
                            Half sh*t-faced!
E|------------------------------------------|
B|------------------------------------------|
G|------------------------------------------|
D|-6-6-6-6-7-7-7-7-6-6-6-6-7----------------|
A|-6-6-6-6-7-7-7-7-6-6-6-6-7----------------|
E|-4-4-4-4-5-5-5-5-4-4-4-4-5----------------|

                                    Half sh*t-Faced!
E|--------------------------------------------------|
B|--------------------------------------------------|
G|-6-6-6-6-6-6-9-9-----6-6-6-6-6-6-9----------------|
D|-6-6-6-6-6-6-9-9-9-9-6-6-6-6-6-6-9----------------| x2
A|-4-4-4-4-4-4-7-7-9-9-4-4-4-4-4-4-7----------------|
E|-----------------7-7------------------------------|
                                     
                                     I WANT MORE!
E|-----------------------------------------------|
B|-----------------------------------------------|
G|-6-6-6-6-6-6-9-9-----6-6-6-6-6-6-9-------------|
D|-6-6-6-6-6-6-9-9-9-9-6-6-6-6-6-6-9-------------| 
A|-4-4-4-4-4-4-7-7-9-9-4-4-4-4-4-4-7-------------|
E|-----------------7-7---------------------------|
            
Hard to play? Try these video lessons and learn fast. | Correct




comments powered by Disqus
↑ Back to top | Tablatures and chords are parodies/interpretations of the original songs. You may use it for private study, scholarship, research or language learning purposes only