>
 >
Grounded

Grounded Guitar Tabs

Queers - Grounded chords, tabs, tablatures, lyrics

Guitar lessons | Add/correct | Request | Top 50 tabs Artists:  A B C D E F G H I J K L M N O P Q R S T U V W X Y Z 0-9

Grounded Guitar Tabs – Queers

CD, Sheet music, Poster

Do you like Grounded? Share with your friends now
Tabs
The Queers- Grounded
Standard tuning
EBGDAE

Intro:

E|-----------------|
B|-----------------|
G|-------------5---|
D|-777777-3-33-5-5-| x4
A|-777777-3-33-3-5-|
E|-555555-1-11---3-|

Verse:
  Caught smoking a cigarette and sucking down a brew
  They gave me no supper, they locked me in my room
  My mother caught me in her purse, hey that's just my luck
  But I needed money for more beer and butts
E|-----------------------------|
B|-----------------------------|
G|---------------555555--------|
D|-777777-333333-555555-555555-| x4
A|-777777-333333-333333-555555-|
E|-555555-111111--------333333-|

                 GO!
E|-----------------|
B|-----------------|
G|-------------5---|
D|-777777-3-33-5-5-| x3
A|-777777-3-33-3-5-|
E|-555555-1-11---3-|

   Goooooooooooo
E|---------------|
B|---------------|
G|---------------|
D|-7777777777777-|
A|-7777777777777-|
E|-5555555555555-|

CHORUS:
  Grounded -- Now it's time to suck my thumb
  Grounded -- I bet Dad's on top of Mom
  Grounded -- And I don't know what to do
  Grounded -- And it ain't to fuckin' cool
  Grounded
  Grounded
E|------------------------------|
B|------------------------------|
G|------5------7----------------|
D|-3-33-5-5-55-7-7-7-7-7\5/7777-| x6
A|-3-33-3-5-55-5-7-7-7-7\5/7777-|
E|-1-11---3-33---5-5-5-5\3/5555-|

RIFF/SOLO:
E|-----------------|
B|-----------------|
G|-------------5---|
D|-777777-3-33-5-5-| x3
A|-777777-3-33-3-5-|
E|-555555-1-11---3-|

E|-0000000--00000-------|
B|-5555555--55555-55555-|
G|-2222222--22222-------|
D|----------------------|
A|----------------------|
E|----------------------|

VERSE:
  Trousers 'round his ankles as he gave me the belt
  Dumber than a fence post, that is how I felt
  You'd never see this happen on the Brady Bunch
  Well I'd love to give my fat old man a great big fucking punch
E|-----------------------------|
B|-----------------------------|
G|---------------555555--------|
D|-777777-333333-555555-555555-| x4
A|-777777-333333-333333-555555-|
E|-555555-111111--------333333-|

                 GO!
E|-----------------|
B|-----------------|
G|-------------5---|
D|-777777-3-33-5-5-| x3
A|-777777-3-33-3-5-|
E|-555555-1-11---3-|

   Goooooooooooo
E|---------------|
B|---------------|
G|---------------|
D|-7777777777777-|
A|-7777777777777-|
E|-5555555555555-|

CHORUS:
  Grounded -- Now it's time to suck my thumb
  Grounded -- I bet Dad's on top of Mom
  Grounded -- And I don't know what to do
  Grounded -- And it ain't to fuckin' cool
  Grounded
  Grounded
E|------------------------------|
B|------------------------------|
G|------5------7----------------|
D|-3-33-5-5-55-7-7-7-7-7\5/7777-| x6
A|-3-33-3-5-55-5-7-7-7-7\5/7777-|
E|-1-11---3-33---5-5-5-5\3/5555-|


ENDING GTR.2 RANDOM MASH IN CHORUS:

E|-----------------------------------------------------------------------|
B|-5555/8------------22-22-22/--17---------------555------5^5P25^5^5P2-5-|
G|-2222---9^9^9^9^---19-19-19/--14-5-5-5-7-5-0-2-222-0H2H5---------------|
D|-----------------------------------------------------------------------|
A|-----------------------------------------------------------------------|
E|-----------------------------------------------------------------------|





Comments


Popular Queers tabs & chords
Didn't Want None 1 Bass Tabs
Nuni In New York Bass Tabs
Nuni In New York 1 Bass Tabs
Punk Rock Girls Bass Tabs
We'd Have A Riot Doing Heroin Bass Tabs
Punk Rock Girls Chords
Granola Head Tabs
I'm Not A Mongo Anymore Tabs
Ursula Finially Has Tits Tabs
Granola Head Ukulele


Song lyrics



↑ Back to top | Tablatures and chords are parodies/interpretations of the original songs. You may use it for private study, scholarship, research or language learning purposes only
© 2014 AZChords.com Contact us | Privacy policy | DMCA | Add/correct tabs | Request tabs | Top 50 tabs