» » »

Queers, Danny Vapid Tabs (ver.1)

Artists:  A B C D E F G H I J K L M N O P Q R S T U V W X Y Z # 

Danny Vapid Tabs (ver.1)

Queers Tabs
Rating:
0/5 (0 votes)
Danny Vapid lessons Tabs too difficult? Try these video lessons and learn fast
                Intro Lead
|-------------------------------------------------------|
|-------------------------------------------------------|
|--9--6--7-6----------7-6----9--6--7-6-----11-9-7-6-9~--|
|------------9-7----7-----9~-----------9-7--------------|
|-----------------7-------------------------------------|
|-------------------------------------------------------|

Intro Rhythm/Verse            
|-------------------------------------------------------------------|
|-------------------------------------------------------------------|
|----------------------------------7-7-7-7-7-7-7-7-9-9-9-9-9-9-9-9--| x4
|--7-7-7-7-7-7-7-7-7-7-7-7-7-7-7-7-7-7-7-7-7-7-7-7-9-9-9-9-9-9-9-9--|
|--7-7-7-7-7-7-7-7-7-7-7-7-7-7-7-7-5-5-5-5-5-5-5-5-7-7-7-7-7-7-7-7--|
|--5-5-5-5-5-5-5-5-5-5-5-5-5-5-5-5----------------------------------|

Pre-Chorus
|---------------------------------------------------------------------------|
|---------------------------------------------------------------------------|
|--7-7-7-7-7-7-7-7-9-9-9-9-9-9-9-9-11-11-11-11-11-11-11-11-7-7-7-7-7-7-7-7--|
|--7-7-7-7-7-7-7-7-9-9-9-9-9-9-9-9-11-11-11-11-11-11-11-11-7-7-7-7-7-7-7-7--|
|--5-5-5-5-5-5-5-5-7-7-7-7-7-7-7-7--9--9--9--9--9--9--9--9-5-5-5-5-5-5-5-5--|
|---------------------------------------------------------------------------|

|------------------------------------------|
|------------------------------------------|
|-11-11-11-11-11-11-11-11-7-7-7-7-7-7-7-7--|
|-11-11-11-11-11-11-11-11-7-7-7-7-7-7-7-7--|
|--9--9--9--9--9--9--9--9-5-5-5-5-5-5-5-5--|
|------------------------------------------|

|------------------------------------------|
|------------------------------------------|
|-11-11-11-11-11-11-11-11-9-9-9-9-9-9-9-9--|
|-11-11-11-11-11-11-11-11-9-9-9-9-9-9-9-9--|
|--9--9--9--9--9--9--9--9-7-7-7-7-7-7-7-7--|
|------------------------------------------|

|-------------------------------------------------------------------|
|-------------------------------------------------------------------|
|--7-7-7-7-7-7-7-7-7-7-7-7-7-7-7-7-9-9-9-9-9-9-9-9-9-9-9-9-9-9-9-9--|
|--7-7-7-7-7-7-7-7-7-7-7-7-7-7-7-7-9-9-9-9-9-9-9-9-9-9-9-9-9-9-9-9--|
|--5-5-5-5-5-5-5-5-5-5-5-5-5-5-5-5-7-7-7-7-7-7-7-7-7-7-7-7-7-7-7-7--|
|-------------------------------------------------------------------|

Chorus
|-----------------------------------|
|-----------------------------------|
|------------------7-7-7-7-7-7-7-7--| x3
|--7-7-7-7-7-7-7-7-7-7-7-7-7-7-7-7--|
|--7-7-7-7-7-7-7-7-5-5-5-5-5-5-5-5--|
|--5-5-5-5-5-5-5-5------------------|

|-----------------------------------|
|-----------------------------------|
|--9-9-9-9-9-9-9-9-9-9-9-9-9-9-9-9--|
|--9-9-9-9-9-9-9-9-9-9-9-9-9-9-9-9--|
|--7-7-7-7-7-7-7-7-7-7-7-7-7-7-7-7--|
|-----------------------------------|
            

comments powered by Disqus
↑ Back to top | Queers Tabs for Danny Vapid. Lyrics for acoustic guitar and electric guitar. Tablatures and chords are parodies/interpretations of the original songs. You may use it for private study, scholarship, research or language learning purposes only