» » »

Queers, Bonehead Tabs (ver.1)

Artists:  A B C D E F G H I J K L M N O P Q R S T U V W X Y Z # 

Bonehead Tabs (ver.1)

Queers Tabs
Rating:
0/5 (0 votes)
Bonehead lessons Tabs too difficult? Try these video lessons and learn fast
                The Queers
A Day Late And A Dollar Short


Standard Tuning

This is 100% accurate.

Verse

e-----------------------------------------------------------------|
B-----------------------------------------------------------------|
G---7-7-7-7-7--------------7-7-7-7-7------------------------------|
D---7-7-7-7-7---5--7-------7-7-7-7-7---5---7----------------------| X 4
A---5-5-5-5-5---5--7-------5-5-5-5-5---5---7----------------------|
E---------------3--5-------------------3---5----------------------|


Pre Chorus (O:22)

e-----------------------------------------------------------------|
B-----------------------------------------------------------------|
G----------7-----------------------7------------------------------| X 4
D--5-5-5---7--7-7-7-7------5-5-5---7--7-7-7-7---------------------|
A--5-5-5---5--7-7-7-7------5-5-5---5--7-7-7-7---------------------|
E--3-3-3------5-5-5-5------3-3-3------5-5-5-5---------------------|


(0:28)

e-----------------------------------------------------------------|
B-----------------------------------------------------------------|
G--7----------7----------7----------7-----------------------------|
D--7--7-7-7---7--7-7-7---7--7-7-7---7--7--------------------------|
A--5--7-7-7---5--7-7-7---5--7-7-7---5--7--------------------------|
E-----5-5-5------5-5-5------5-5-5------5--------------------------|

Chorus (0:30)

e-----------------------------------------------------------------|
B-----------------------------------------------------------------|
G--7-7-7-7-7-7-7-7------------------------------------------------|
D--7-7-7-7-7-7-7-7--5-5-5-5--7-7-7-7------------------------------| X 4
A--5-5-5-5-5-5-5-5--5-5-5-5--7-7-7-7------------------------------|
E-------------------3-3-3-3--5-5-5-5------------------------------|

(0:43)

e--------------------------|
B--------------------------|
G----------7---------------| X 4
D--5-5-5---7--7-7-7-7------|
A--5-5-5---5--7-7-7-7------|
E--3-3-3------5-5-5-5------|


Verse (0:50)

e-----------------------------------------------------------------|
B-----------------------------------------------------------------|
G---7-7-7-7-7--------------7-7-7-7-7------------------------------|

D---7-7-7-7-7---5--7-------7-7-7-7-7---5---7----------------------| X 4
A---5-5-5-5-5---5--7-------5-5-5-5-5---5---7----------------------|
E---------------3--5-------------------3---5----------------------|


Pre Chorus (0:56)

e-----------------------------------------------------------------|
B-----------------------------------------------------------------|
G----------7-----------------------7------------------------------| X 4
D--5-5-5---7--7-7-7-7------5-5-5---7--7-7-7-7---------------------|
A--5-5-5---5--7-7-7-7------5-5-5---5--7-7-7-7---------------------|
E--3-3-3------5-5-5-5------3-3-3------5-5-5-5---------------------|

(1:02)


e-----------------------------------------------------------------|
B-----------------------------------------------------------------|
G--7----------7----------7----------7-----------------------------|
D--7--7-7-7---7--7-7-7---7--7-7-7---7--7--------------------------|
A--5--7-7-7---5--7-7-7---5--7-7-7---5--7--------------------------|
E-----5-5-5------5-5-5------5-5-5------5--------------------------|


Chorus (1:05)

e-----------------------------------------------------------------|
B-----------------------------------------------------------------|
G--7-7-7-7-7-7-7-7------------------------------------------------|
D--7-7-7-7-7-7-7-7--5-5-5-5--7-7-7-7------------------------------| X 4
A--5-5-5-5-5-5-5-5--5-5-5-5--7-7-7-7------------------------------|
E-------------------3-3-3-3--5-5-5-5------------------------------|


(1:18)

e--------------------------|
B--------------------------|
G----------7---------------| X 4
D--5-5-5---7--7-7-7-7------|
A--5-5-5---5--7-7-7-7------|
E--3-3-3------5-5-5-5------|

e--------------------------|
B--------------------------|
G------7-------------------|
D------7-------------------| HOLD THAT OUT
A------5-------------------|
E--------------------------|


Verse (1:34)

e-----------------------------------------------------------------|
B-----------------------------------------------------------------|
G---7-7-7-7-7--------------7-7-7-7-7------------------------------|
D---7-7-7-7-7---5--7-------7-7-7-7-7---5---7----------------------| X 3
A---5-5-5-5-5---5--7-------5-5-5-5-5---5---7----------------------|
E---------------3--5-------------------3---5----------------------|


Pre Chorus (1:44)

e-----------------------------------------------------------------|
B-----------------------------------------------------------------|
G----------7-----------------------7------------------------------| X 4
D--5-5-5---7--7-7-7-7------5-5-5---7--7-7-7-7---------------------|
A--5-5-5---5--7-7-7-7------5-5-5---5--7-7-7-7---------------------|
E--3-3-3------5-5-5-5------3-3-3------5-5-5-5---------------------|

(1:50)

e-----------------------------------------------------------------|
B-----------------------------------------------------------------|
G--7----------7----------7----------7-----------------------------|
D--7--7-7-7---7--7-7-7---7--7-7-7---7--7--------------------------|
A--5--7-7-7---5--7-7-7---5--7-7-7---5--7--------------------------|
E-----5-5-5------5-5-5------5-5-5------5--------------------------|


Chorus (1:53)

e-----------------------------------------------------------------|
B-----------------------------------------------------------------|
G--7-7-7-7-7-7-7-7------------------------------------------------|
D--7-7-7-7-7-7-7-7--5-5-5-5--7-7-7-7------------------------------| X 4
A--5-5-5-5-5-5-5-5--5-5-5-5--7-7-7-7------------------------------|
E-------------------3-3-3-3--5-5-5-5------------------------------|


Outro (2:06)

e--------------------------|
B--------------------------|
G----------7---------------| X 4
D--5-5-5---7--7-7-7-7------|
A--5-5-5---5--7-7-7-7------|
E--3-3-3------5-5-5-5------|

e--------------------------|
B--------------------------|
G------7-------------------|
D------7-------------------| HOLD THAT OUT
A------5-------------------|
E--------------------------|

AND THERE YOU GO.  I SPENT SOME TIME ON THIS AND I KNOW IT IS ACCURATE.  RATE IT PLEASE.
            
Submit corrections

comments powered by Disqus
↑ Back to top | Queers Tabs for Bonehead. Lyrics for acoustic guitar and electric guitar. Tablatures and chords are parodies/interpretations of the original songs. You may use it for private study, scholarship, research or language learning purposes only