» » »

Queensryche, Waiting For Tabs (ver.3)

Artists:  A B C D E F G H I J K L M N O P Q R S T U V W X Y Z # 

Waiting For Tabs (ver.3)

Queensryche Tabs
Rating:
0/5 (0 votes)
Waiting For  lessons Tabs too difficult? Try these video lessons and learn fast
                (2)
"Waiting for 22" by Queensryche


This is the solo that appears after "I Don't Believe in Love"
I didn't figure out Wilton's parts during DeGarmo's electric
solo...sorry.  They are just simple arpeggios, though.


        hx = hammer-on to x
        px = pull-off to x
        ^x = Bend or release note to the pitch of x
        /  = slide
        *  = natural harmonic

   Guitar 1 (Wilton): Acoustic (let ring)
E-|-----0--------0--------0--------0----+------0---------0----+
B-|---3--3-3---3--3-3---3--3-3---3--3-3-+-----0-0-------0-0---+
G-|--2-2--2---2-2--2---2-2--2---2-2--2--+---11---11---11---11-+
D-|-0--------0--------0--------0--------+--9---------9--------+
A-|-------------------------------------+---------------------+
E-|-------------------------------------+-7---------7---------+

E-|-----0-------0---+-----------------+---------------------+
B-|----0-0-----0-0--+-----0-------0---+---------------------+
G-|---6---6---6---6-+----0-0-----0-0--+------0---------0----+
D-|--5-------5------+---4---4---4---4-+---4-0-0-4---4-0-0-4-+
A-|-----------------+--2-------2------+--4---------4--------+
E-|-3-------3-------+-0-------0-------+-2---------2---------+

   Guitar 2 (DeGarmo): Electric w/distortion                          *
E-|--------------+-----+--------------------+-----------------------*-12-+
B-|--------------+-----+-15-15-15-15-14-7-5-+-15-15-15-15-14-10--12-12---+
G-|-4-6^7-6-6----+-----+--------------------+------------------12--------+
D-|----------5-2-+-2/4-+--------------------+----------------------------+
A-|--------------+-2/4-+--------------------+----------------------------+
E-|--------------+-----+--------------------+----------------------------+

E-|-------+---------------------------+--------\14--14-12--17---+
B-|-------+-\7-8-10-8-7h8p7-7-3-3/5-5-+-7h8p7-7---12-----14--14-+
G-|-7^9-4-+---------------------------+-------------------------+
D-|-------+---------------------------+-------------------------+
A-|-------+---------------------------+-------------------------+
E-|-------+---------------------------+-------------------------+

E-|---------------------------------------+--------+
B-|-12h14h15-15-15-15-15^17^15-14-12/14---+-11--12-+
G-|------------------------------------11-+---11---+
D-|---------------------------------------+--------+
A-|---------------------------------------+--------+
E-|---------------------------------------+--------+

E-|----14--14---17---19---22-21-|
B-|-/12--12--/14--/17--/19------|
G-|-----------------------------|
D-|-----------------------------|
A-|-----------------------------|
E-|-----------------------------|
            

comments powered by Disqus
↑ Back to top | Queensryche Tabs for Waiting For. Lyrics for acoustic guitar and electric guitar. Tablatures and chords are parodies/interpretations of the original songs. You may use it for private study, scholarship, research or language learning purposes only