» » »

Queensryche, Tribe Tabs (ver.1)

Artists:  A B C D E F G H I J K L M N O P Q R S T U V W X Y Z # 

Tribe Tabs (ver.1)

Queensryche Tabs
Rating:
0/5 (0 votes)
Tribe lessons Tabs too difficult? Try these video lessons and learn fast
                |--| = phrases, not measures, sorry

This song, for the most part, is played in the first four frets of the low E and A 
It's a great song for people who are just picking up a guitar.

e|------------------------------------|------------------------------------|
B|------------------------------------|------------------------------------|
G|------------------------------------|------------------------------------|
D|------------------------------------|------------------------------------|
A|-3-3-3--1-4-4-4--1-3-3-3--1-3-3-3--1|-3-3-3--1-4-4-4--1-3-3-3--1-3-3-3--1|
E|-3-3-3--1-4-4-4--1-3-3-3--1-3-3-3--1|-3-3-3--1-4-4-4--1-3-3-3--1-3-3-3--1|
                                   The face..
                                            The face..

e|------------------------------------|-----------------------------------|
B|------------------------------------|-----------------------------------|
G|------------------------------------|-----------------------------------|
D|------------------------------------|-----------------------------------|
A|------------------------------------|-----------------------------------|
E|-3-3-3--1-4-4-4--1-3-3-3--1-3-3-3--1|-3-3-3--1-4-4-4--1-3-3-3--1-3-3-3--|
  Taken to..

e-|---------------------------------------|
B-|---------------------------------------|
G-|---------------------------------------|
D-|---------------------------------------|
A-|---------------------------------------|
E1|-3-3-3--1-4-4-4--1-3-3-3--1-3-3-3--1---|
                                  is

e|------------------------------------|
B|------------------------------------|
G|------------------------------------|
D|------------------------------------|
A|-3-3-3--1-4-4-4--1-3-3-3--1-3-3-3--1|
E|-3-3-3--1-4-4-4--1-3-3-3--1-3-3-3--1|

e|------------------------------------|------------------------------------|
B|------------------------------------|------------------------------------|
G|------------------------------------|-----------------------------------0|
D|------------------------------------|-----------------------------------1|
A|------------------------------------|-----------------------------------1|
E|-3-3-3--1-4-4-4--1-3-3-3--1-3-3-3--1|-3-3-3--1-4-4-4--1-3-3-3--1-3-3-3--1|
  Travel..                                                             God

The Chorus is too fast for me to get, but then it goes:

e|------------------------------------|
B|------------------------------------|
G|------------------------------------|
D|------------------------------------|
A|-3-3-3--1-4-4-4--1-3-3-3--1-3-3-3--1|
E|-3-3-3--1-4-4-4--1-3-3-3--1-3-3-3--1|

e|------------------------------------|------------------------------------|
B|------------------------------------|------------------------------------|
G|------------------------------------|------------------------------------|
D|------------------------------------|------------------------------------|
A|------------------------------------|------------------------------------|
E|-3-3-3--1-4-4-4--1-3-3-3--1-3-3-3--1|-3-3-3--1-4-4-4--1-3-3-3--1-3-3-3--1|
  Passing..                                                            peace

There's the Chorus again

Then at the end there's about three seconds of percussion, then:

e|------------------------------------|------------------------------------|
B|------------------------------------|------------------------------------|
G|------------------------------------|------------------------------------|
D|------------------------------------|------------------------------------|
A|-3-3-3--1-4-4-4--1-3-3-3--1-3-3-3--1|-3-3-3--1-4-4-4--1-3-3-3--1-3-3-3--1|
E|-3-3-3--1-4-4-4--1-3-3-3--1-3-3-3--1|-3-3-3--1-4-4-4--1-3-3-3--1-3-3-3--1|
                                     The face..                          The
                                               The face..
                                                          The answer..

e|------------------------------------|------------------------------------|
B|------------------------------------|------------------------------------|
G|------------------------------------|------------------------------------|
D|------------------------------------|------------------------------------|
A|-3-3-3--1-4-4-4--1-3-3-3--1-3-3-3--1|-3-3-3--1-4-4-4--1-3-3-3--1-3-3-3--1|
E|-3-3-3--1-4-4-4--1-3-3-3--1-3-3-3--1|-3-3-3--1-4-4-4--1-3-3-3--1-3-3-3--1|
   face..                            The face..                          The
          The face..                           The face..
                   The answer..      The answer..       The answer..

e|------------------------------------|---------|
B|------------------------------------|---------|
G|------------------------------------|---------|
D|------------------------------------|---------|
A|-3-3-3--1-4-4-4--1-3-3-3--1-3-3-3---|-11----11|
E|-3-3-3--1-4-4-4--1-3-3-3--1-3-3-3---|-11----11|
  face..
         The face..
            
Submit corrections

comments powered by Disqus
↑ Back to top | Queensryche Tabs for Tribe. Lyrics for acoustic guitar and electric guitar. Tablatures and chords are parodies/interpretations of the original songs. You may use it for private study, scholarship, research or language learning purposes only