» » »

Queensryche, Thin Line Tabs (ver.1)

Artists:  A B C D E F G H I J K L M N O P Q R S T U V W X Y Z # 

Thin Line Tabs (ver.1)

Queensryche Tabs
Rating:
0/5 (0 votes)
Hard to play? Try these video lessons and learn fast.
                (Intro)
----------------------------------------------------------------------------
                             THE THIN LINE - Queensryche
----------------------------------------------------------------------------


Tuning: Standard

e|---------------------------------------------------|
B|---------------------------------------------------|
G|---------------------------------------------------|
D|--9----9-------2--4--5--2--4--2-----2--4--5--2--7--|
A|--7----7----2--------------------2-----------------|
E|--0----0-------------------------------------------|

e|-----------------------------------------|
B|-----------------------------------------|
G|-----------------------------------------|
D|-----2--4--5--2--4--2-----2--4--5--2-----|
A|--2--------------------2--------------0--|
E|-----------------------------------------|

e|-----------------------------------------|
B|-----------------------------------------|
G|-----------------------------------------|
D|-----2--4--5--2--4--2-----2--4--5--2--7--|
A|--2--------------------2-----------------|
E|-----------------------------------------|
2nd guitar
e|-----------------------------------------|
B|----------4/5------------------4/5-------|
G|-----4--7-----4--7--4-----4--7-----7--6--|
D|-----------------------------------------|
A|-----------------------------------------|
E|-----------------------------------------|

e|-----------------------------------------|
B|-----------------------------------------|
G|-----------------------------------------|
D|-----2--4--5--2--4--2-----2--4--5--2-----|
A|--2--------------------2--------------0--|
E|-----------------------------------------|
2nd guitar
e|-----------------------------------------|
B|----------4/5------------------4/5-------|
G|-----4--7-----4--7--4-----4--7-----7--6--|
D|-----------------------------------------|
A|-----------------------------------------|
E|-----------------------------------------|

e|-----------------------------------------------------------|
B|-----------------------------------------------------------|
G|--------------------------2x-2x-2x-2x-2x-2x-2x-2x-4--------|
D|--5x-5x-5x-5x-5x-5x-5x-5x-0x-0x-0x-0x-0x-0x-0x-0x-2--------|
A|--5x-5x-5x-5x-5x-5x-5x-5x-0x-0x-0x-0x-0x-0x-0x-2x-2--------|
E|--3x-3x-3x-3x-3x-3x-3x-3x----------------------------------|
2nd guitar
e|-----------------------------------------------------------|
B|--8------------10----8-------------------------------------|
G|--7------------7-----7----6------------6--7p6--2--4--------|
D|--------------------------7------------7-------2--4--------|
A|--------------------------------------------------2--------|
E|-----------------------------------------------------------|


| /  bend up
| \  bend down
| h  hammer-on
| p  pull-off
| ~  vibrato
| +  harmonic
| x  Mute note
============================================================================
            

comments powered by Disqus
↑ Back to top | Queensryche Tabs for Thin Line. Lyrics for acoustic guitar and electric guitar. Tablatures and chords are parodies/interpretations of the original songs. You may use it for private study, scholarship, research or language learning purposes only