>
 >
The Mission

The Mission Guitar Tabs

Queensryche - The Mission chords, tabs, tablatures, lyrics

Guitar lessons | Add/correct | Request | Top 50 tabs Artists:  A B C D E F G H I J K L M N O P Q R S T U V W X Y Z 0-9

The Mission Guitar Tabs – Queensryche

CD, Sheet music, Poster

Do you like The Mission? Share with your friends now
Bass TabsTabsTabs v2
PROPS GO TO: metal_carnage

The mission, another great song by QueensRyche, performed on the album MindCrime, Live evolution disk 1


intro part 1:

1|--------------------------------------------------------------------|
2|---0--------0-----1---------1-----2---------2-----1---------1-------|
3|-----0---0----0-----0---0-----0-----0---0-----0-----0---0-----0-----|
4|-------2---2----2-----2---2-----2-----2---2-----2-----2---2-----2---|
5|--------------------------------------------------------------------|
6|--------------------------------------------------------------------|

Repeat this while singing


"In the wooden chair besides my window..."

1|---------------------------0---|
2|---1---------1-----0-------0---|
3|-----0---0-----0-----0---0-----|
4|-------2---2-----2-----2-------|
5|-------------------------------|
6|-------------------------------|



This will be the part right after the intro


"I can't explain..."


intro part 2:

1|---0-0---0-0---7---0-0---0-0---|
2|---5-5---5-5---5---5-5---5-5---|
3|---4-4---4-4---4---4-4---5-5---|
4|-------------------------------|
5|-------------------------------|
6|-------------------------------|


just be a little creative, it's sounds perfect
repeat this 3 times I think it is.. just listen to the song to be sure

4th time you will hear the heavy part crashing in
that will be something like this:


1|---0-0---0-0---7---0-0---------|
2|---5-5---5-5---5---5-5---------|
3|---4-4---4-4---4---4-4---5-5---|
4|-------------------------5-5---|
5|-------------------------3-3---|
6|-------------------------------|



riff
1|-------------------------------------------------------------|
2|-------------------------------------------------------------|
3|-------------------------------------------------------5-7---|
4|---9-9--10-10--9-10-10-12-12--7-9-9--10-10--9-10-10-7--5-7---|
5|---7-7--7--7---7-7--7--10-10--7-7-7--7--7---7-7--7--7--3-5---|
6|-------------------------------------------------------------|

"six day ago my life had taken a tumble..."

"I search the past back..."



chorus:

1|------------------------------------------------------------
2|------------------------------------------------------------
3|---5-7-5-2-4-5-----------------------------------------------------
4|---5-7-5-2-4-5----------------------------------------------------
5|---3-5-3-0-2-3-----------------------------------------------------
6|-----------------------------------------------------------

"'ll wait here for days longer..."

this is pretty much it... just play with the timing of when you play.





"My mission saved the world..."


bridge:

1|-----------------------------------------------------5~--|
2|--------5/7-5-7^8-5-5-7-5------------5/7-5-7^8-5-5-7-----|
3|---4h5p4------------------5~----4h5p5--------------------|
4|---------------------------------------------------------|
5|---------------------------------------------------------|
6|---------------------------------------------------------|



"turned my life around"


solo intro:


1st guitar

1|---------------------------------------------------------------------|
2|---------------------------------------------------------------------|
3|---4-4/9-11-11h12p11-9\4-4\2---------------9^\4-5/7\5-2-4-5-4-5-4~---|
4|-----------------------------2-4-5-4-5-4-2---------------------------|
5|---------------------------------------------------------------------|
6|---------------------------------------------------------------------|

solo 2nd guitar

1|--------------------------------------------------------------------|
2|---0--------0-----1---------1-----2---------2-----1---------1-------|
3|-----0---0----0-----0---0-----0-----0---0-----0-----0---0-----0-----|
4|-------2---2----2-----2---2-----2-----2---2-----2-----2---2-----2---|
5|--------------------------------------------------------------------|
6|--------------------------------------------------------------------|

2nd guitar starting, then the 1st comes in...

maybe in the future more solo stuff this is all I figured out by now...




outro:

1|------------------------------|
2|------------------------------|
3|---4-2-4-5-4-5-7-5-7-999-12---|
4|---4-2-4-5-4-5-7-5-7-999-12---|
5|---2-0-2-3-2-3-5-3-5-777-10---|
6|------------------------------|

1|---------------------------------------|
2|---------------------------------------|
3|---4-2-4-5-4-5-7-5-7-999-9999-9999/2---|
4|---4-2-4-5-4-5-7-5-7-999-9999-9999/2---|
5|---2-0-2-3-2-3-5-3-5-777-7777-7777/0---|
6|---------------------------------------|





intro part 1:	 0:27 - 0:58
intro part 2:	 0:58 - 1:17
riff:		 1:17 - 1:39
chorus:		 1:39 - 2:00
riff:		 2:00 - 2:30
chorus:		 2:30 - 2:50
bridge:		 2:50 - 3:11
solo 2nd guitar:   3:11 - 3:20		
solo 1st guitar:   3:20 - 3:38  *the complete solo 3:20 - 4:02
riff:		 4:02 - 4:23
chorus:		 4:23 - 4:43
bridge:		 4:43 - 5:23
outro:		 5:23 - 5:45			

I took the Live Evolution version of The mission for this tab.
@ intro part 2 you can hear some nice slides


1|-0-0-|
2|-2/4-|
3|-3/5-|


when you play the bridge, bend the 7^8!
dont slide 7/8 but really bend it.. on the record you can hear its an abvious bend and it sounds nicer 2 me :) 


the intro is playing clean, with some echo
rest of the song is distored.

the riff is'nt exact, jus tplay with it its quite close


enjoy this one :)





Comments


Popular Queensryche tabs & chords
Sign Of The Times 1 Bass Tabs
Best I Can Tabs
Breaking The Silence Tabs
Electric Requiem Tabs
I Don't Believe In Love 1 Tabs
Operation: Mindcrime Tabs
Take Hold Of The Flame 1 Tabs
Waiting For 22 1 Tabs
Bridge Ukulele
Until There Was You Ukulele


Song lyrics



↑ Back to top | Tablatures and chords are parodies/interpretations of the original songs. You may use it for private study, scholarship, research or language learning purposes only
© 2014 AZChords.com Contact us | Privacy policy | DMCA | Add/correct tabs | Request tabs | Top 50 tabs