>
 >
Spreading The Disease 1

Spreading The Disease 1 Guitar Tabs

Queensryche - Spreading The Disease 1 chords, tabs, tablatures, lyrics

Guitar lessons | Add/correct | Request | Top 50 tabs Artists:  A B C D E F G H I J K L M N O P Q R S T U V W X Y Z 0-9

Spreading The Disease 1 Guitar Tabs – Queensryche

CD, Sheet music, Poster

Do you like Spreading The Disease 1? Share with your friends now
Bass TabsTabsTabs v2


---\------|-----0------0-----0-----0-----0--|--0------------------------------|
----\-----|-12-----10-----8-----7-----3/-5-*|--5------------------------------|
-----\----|---------------------------------|---------------------------------|
------\---|---------------------------------|---------------------------------|
-------\--|--------------------------------*|---------------------------------|
-0------\-|---------------------------------|---------------------------------|
 intro      repeat 4 times over rhythm guitar, then hold the unison E notes

------------------------------------------------------------------------------|
------------------------------------------------------------------------------|
------------------------------------------------------------------------------|
-------------------------------------------------------------------2----------|
--------------------------------------7-----10-----9----------10---2----------|
-0-0-0-0-0-0-0-0-0-0-0-0-0-0-0-0--0-0---0-0----0-0------0--0--8----0----------|
 verse riff-palm mute the low E string

------------------------------------------------------------------------------|
------------------------------------------------------------------------------|
--------------------------------x-x-------------------------------------------|
---------------------------14---x-x----12--------------2----------------------|
--------------8-----10-----12---x-x----10--12----10----2----------------------|
----------0-0---0-0----0-0-----------------10----8-----0----------------------|
                                                           repeat, but then,

------------------------------------------------------------------------------|
------------------------------------------------------------------------------|
------------------------------------------------------------------------------|
--------------------------------12-----------12-------------------------------|
--------------------------------10-----12----10----9--------------------------|
---------------------------------------10----------7--------------------------|
 after rhythm choking x's, play

-0---0-------0-------0------0--------0---0-------0-------0-------0-----------|
-8-------7-------5------3---0----3---8-------7-------5-------3---0---------*-|
-----------------------------------------------------------------------------|
-----------------------------------------------------------------------------|
---------------------------------------------------------------------------*-|
-----------------------------------------------------------------------------|
 chorus  (Geoff Tate broke my windows!!!)

---------------------------------------------------------14--15--17-----------|
----------------------15-----------------------14-15-17-----------------------|
-14b16--16r--14-12-14----14b16-----14--16--17---------------------------------|
------------------------------------------------------------------------------|
------------------------------------------------------------------------------|
------------------------------------------------------------------------------|
 Guitar Solo

-17b19--19------17-15-14-15-14-15-17-15-14-15-17-15-14------------------------|
--------------------------------------------------------17--15--13------------|
--------------------------------------------------------------------16-14-12--|
------------------------------------------------------------------------------|
------------------------------------------------------------------------------|
------------------------------------------------------------------------------|


------------------------------------------------------------------------------|
------------------------------------------------------------------------------|
-11-----------11-12-11v--------------9b11--r9--9--7--9--7-6-7-6------6--------|
-----9h10h12--------------9h10h12---------------------------------9-----9--7--|
------------------------------------------------------------------------------|
------------------------------------------------------------------------------|


---------------------------------------------------------------12--14---15----|
------------------------------------------------------------------------------|
----------------------------------------222--444--555-777-777--9---11---12----|
-5--4--5--2--4-0-2-4v----222--444--555----------------------------------------|
------------------------------------------------------------------------------|
------------------------------------------------------------------------------|


-17---19----------------------------------------------------------------------|
----------------------------------------------------------------------------1-|
-14---16----------------------------------------------------------------------|
------------------------------------------------------------------------------|
------------------------------------------------------------------------------|
------------------------------------------------------------------------------|
          the delay pedal he's got on then repeats the last notes.

----------0------0---------------0---------------0----0--0--------------------|
-10-h-12-----12---------10-h-12----12--10--8--7--3-/--5--5--------------------|
------------------------------------------------------------------------------|
------------------------------------------------------------------------------|
------------------------------------------------------------------------------|
------------------------------------------------------------------------------|
 This part played after the infamous speech, "Religion and sex are power..."

----------0------0------0----------0------------0---------------0/--0---0-----|
-10-h-12-----12-----12-----15--12--17--15--12--10--8--7------3--3---5---5-----|
------------------------------------------------------------------------------|
------------------------------------------------------------------------------|
------------------------------------------------------------------------------|
------------------------------------------------------------------------------|
 This part played after "While we pay for wars in South America"

----0/--0---0-------0----0--0---0---0--0--0--0-0--0---0-0---------------------|
-3--3---5---5-------3/---5--5---3-/-5--5--3-/5-5--3/--5-5---------------------|
------------------------------------------------------------------------------|
------------------------------------------------------------------------------|
------------------------------------------------------------------------------|
------------------------------------------------------------------------------|
                    now faster, as the palm muted E sneaks up

------------------------------------------------------------------------------|
------------------------------------------------------------------------------|
-12------10------8-------7-------3--------3-------3---------------------------|
-0-------0-------0-------0-------0--------0-------0---------------------------|
------------------------------------------------------------------------------|
------------------------------------------------------------------------------|
 conclusion

h  - hammer on
p  - pull off
* - trill
b  - bend (use tremolo bar for downbend)
r  - release bend
/  - slide up
\  - slide down
v  - vibrato
t  - tap (with strumming hand)
x  - fret-hand muting
^ -  natural harmonics
ph- artificial (pinch) harmonics
PM palm mute
                    -\----------/-----------------------------|
Lines going diagonally up and down   --\--------/-------------|
These mean whammy bar                     --\------/----------|
          -                                    --\----/-------|
\ - bar down
/- bar up





Comments


Popular Queensryche tabs & chords
Best I Can (Solo) Tabs
Eyes Of A Stranger Tabs
I Dont Believe In Love Intro 1 Tabs
I Will Remember 1 Tabs
Silent Lucidity 1 Tabs
Silent Lucidity 3 Tabs
Spreading The Disease Tabs
The Mission 1 Tabs
Waiting For 22 2 Tabs
The Hands Ukulele


Song lyrics



↑ Back to top | Tablatures and chords are parodies/interpretations of the original songs. You may use it for private study, scholarship, research or language learning purposes only
© 2014 AZChords.com Contact us | Privacy policy | DMCA | Add/correct tabs | Request tabs | Top 50 tabs