>
 >
Spreading The Disease

Spreading The Disease Bass Tabs

Queensryche - Spreading The Disease chords, tabs, tablatures, lyrics

Guitar lessons | Add/correct | Request | Top 50 tabs Artists:  A B C D E F G H I J K L M N O P Q R S T U V W X Y Z 0-9

Spreading The Disease Bass Tabs – Queensryche

CD, Sheet music, Poster

Do you like Spreading The Disease? Share with your friends now
Bass TabsTabsTabs v2
-------------------------------------------------------------------------------
			     SPREADING THE DISEASE - Queensryche
-------------------------------------------------------------------------------


Tuning: Standard Bass (E A D G)

Starts with 1 bar just drums, 1 bar drums + guitar, then bass comes in:

(0:05) - Intro

G|----|-------|----|-------|
D|----|-------|----|-------|
A|----|-------|----|-------| (x2) 
E|-0~-|-2~-3~-|-0~-|-5~-3~-|

G|----|---|
D|----|---|
A|----|---|
E|-0~-|-R-|

(0:29) - Verse 1 (She always brings me what I need...)
   
G|------------------|------------------|----|--------------------|
D|------------------|------------------|----|--------------------|
A|------------------|------------------|----|---7--10--12-----10\|
E|-0000000000000000-|-000000000000008\-|-0~-|-xx-xx--xx---R-xx---|

G|----|----|----|---|
D|----|----|----|---|
A|-5~-|-3~-|----|---|
E|----|----|-0~-|-R-|

(0:48) - Verse 2 (16 and on the run from home...)

G|------------------|------------------|----|--------------------|
D|------------------|------------------|----|--------------------|
A|------------------|------------------|----|---7--10--12-----10\|
E|-0000000000000000-|-000000000000008\-|-0~-|-xx-xx--xx---R-xx---|

G|---------|----------|---------|-----------|
D|---------|----------|---------|-----------|
A|-5~------|-3~--(3-3)|-5~---(5)|-2~-(2-3-3)|
E|---------|----------|---------|-----------|

(1:08) - Chorus 1

G|------------------|--------------------|-------5555--55---|----|
D|-------55577775---|-----7/9p77777775---|----555----55--55-|----|
A|----555--------75-|----7------------75-|-333--------------|----|
E|-333--------------|-555----------------|------------------|-0~-|

G|------------------|------------|----|---|
D|-------55577754---|------------|----|---|
A|----555--------75-|------------|----|---|
E|-333--------------|-5~---3~----|-0~-|-R-|

(1:27) - Verse 3 (same as Verse 2, but play the notes in brackets)

(1:47) - Chorus 2 (same as Chorus 1, but skip last 2 bars)

(2:01) - Solo (same as Intro section)

(2:27) - Bridge (Religion & sex are power plays...)

G|---|
D|---|
A|---| (x4)
E|-R-|

(2:37) play next 8 bars chord-style

G|-------9~---------|------------------|----|---|
D|----9~---9~-------|----5~------7~----|----|---|
A|-7~---------------|-3~----3~5~----5~-|-7~-|---|
E|------------------|------------------|-0~-|-R-|

G|-------9~---------|------------------|----|----|
D|----9~---9~-------|----5~------7~----|----|----|
A|-7~---------------|-3~----3~5~----5~-|----|----|
E|------------------|------------------|-0~-|-0~-|

G|------------------|------------------|
D|------------------|------------------|
A|------------------|------------------|
E|-0000000000000000-|-0000000000000000-|
 [-    gradually increase volume      -]

(3:01) Chorus 3

G|------------------|--------------------|-------5555--55---|----|
D|-------55577775---|-----7/999p777775---|----555----55--55-|----|
A|----555--------75-|----7------------75-|-333--------------|----|
E|-333--------------|-555----------------|------------------|-0~-|

G|------------------|---------------9p7---|-------5555--55---|----|
D|-------55577775---|-----7/9p777777--9p7-|----555----55--55-|----|
A|----555--------75-|----7----------------|-333--------------|----|
E|-333--------------|-555-----------------|------------------|-0~-|

G|------------------|------------|
D|-------55577754---|------------|
A|----555--------75-|------------|
E|-333--------------|-5~---3~----|

(3:26) Outro (pretty much the intro again)

G|----|-------|----|-------|
D|----|-------|----|-------|
A|----|-------|----|-------| (x2) 
E|-0~-|-2~-3~-|-0~-|-5~-3~-|

Fades out with bass playing a repeated low G (3rd fret E string)
in time with the guitar

Thats it! Comments & ratings are greatly appreciated, particularly
concerning the chorus which Im sure is still kinda off

Cheers!

| /  slide up
| \  slide down
| h  hammer-on
| p  pull-off
| ~  vibrato/let note ring
| +  harmonic
| x  mute note
| R  rest
===============================================================================





Comments


Popular Queensryche tabs & chords
Silent Lucidity (Solo) Chords
Anybody Listening? 1 Tabs
Hero Tabs
I Dont Believe In Love Intro 1 Tabs
Neue Regel 1 Tabs
Resistance Tabs
Speak Tabs
Take Hold Of The Flame 1 Tabs
Two Miles High Tabs
Waiting For 22 2 Tabs


Song lyrics



↑ Back to top | Tablatures and chords are parodies/interpretations of the original songs. You may use it for private study, scholarship, research or language learning purposes only
© 2014 AZChords.com Contact us | Privacy policy | DMCA | Add/correct tabs | Request tabs | Top 50 tabs