» » »

Queensryche, Revolution Calling Bass tabs (ver.1)

Artists:  A B C D E F G H I J K L M N O P Q R S T U V W X Y Z # 

Revolution Calling Bass tabs (ver.1)

Queensryche Tabs
 Rating:
4/5 (4 votes)
Revolution Calling lessons Tabs too difficult? Try these video lessons and learn fast
                "(1)
There's not a lot going on here that would be difficult to figure out, it's 
just that nobody has ever done it...

You're going to need to bust out the 5-string for this one.  It could be done 
On a 4-string in drop-D but the 6-strings were played in standard and it's
Usually a good idea (IMHO) to have all of the guitars in the band in the same
Tuning for any given song (I realize there are exceptions for certain exotic
Guitar tunings but in general it leads to confusion).  If you're dead-set
Against owning a 5-string that's your business.

I'm not going to hold your hand here.  All of the licks are spelled out and a 
Lot of the fills.

Lead in from	  This part goes over the beginning
Anarchy-X           and the ending
G|----|------------|---------------------------------------------------------|-
D|----|------------|---------------------------------------------------------|-
A|/12-|-----3--2-3-|------3-5---3-5-------3-5---3-5-----3-5---3-5------------|-
E|----|-1----------|----------5---------------5-------------5-------3--5--3--|-
B|----|------------|--3----------------3-------------6-----------------------|-
                                                                              

-|------------------------------------------------------|---------------------
-|------------------------------------------------------|---------------------
-|----3-5---3-5------3-5---3-5------3-5---3-5-------3-2-|---------------------
-|--------5--------------5--------------5------3--------|---------------------
-|3---------------3--------------6----------------------|---------------------
                                                                              
Main Verse part
-|------------------------|-----------------------------------------|---------
-|------------------------|-----------------------------------------|---------
-|------------------------|-------------------------------5-3-0-7-6-|---------
-|-5---5-5---5---3----0-3-|-5---5-5---5---1---3--3-1--5-------------|---------
-|------------------------|-----------------------------------------|---------
                                                                              

-|------------------------|--------------------------|------------------------
-|------------------------|--------------------------|------------------------
-|------------------------|--------------------------|------------------------
-|-5---5-5---5---3----0-3-|-5---5-5---5---1---3--3-1-|------------------------
-|------------------------|--------------------------|------------------------
                                                                              

Lyrics: "I used to trust the media..."
-|-----------------|-----------------|-----------------|--------------|-------
-|-----------------|-----------------|-----------------|--------------|-------
-|-----------------|-----------------|-----------------|-----3---2-3--|-------
-|-0-0-0-0-0-0-0-0-|-----------------|-1-1-1-1-1-1-1-1-|-3------------|-------
-|-----------------|-3-3-3-3-3-3-3-3-|-----------------|--------------|-------
                                                                              

-|-----------------|-----------------|-----------------|-----------------|----
-|-----------7-----|-----------------|-----------------|-2---0-2------2\-|----
-|-5---5-5-5---5-5-|-3-3-3-3-3-3-3-3-|-----------------|---2-------------|----
-|-----------------|-----------------|-1-1-1-1-1-1-1-1-|-----------------|----
-|-----------------|-----------------|-----------------|-----------------|----
                                                                              
Lyrics: "Revolution Calling..."
ad lib some octave stuff in here
-|--------------|-------------|-------------|--------------|------------------
-|*-------------|-------------|-------------|-------------*|------------------
-|--5-5-5-5-5-5-|-------------|-------------|--------------|------------------
-|*-------------|-0-0-0-0-0-0-|-1-1-1-1-1-1-|-3-3-3-3-3-3-*|------------------
-|--------------|-------------|-------------|--------------|------------------
                                                                              
lead in to
solo section.  The "C" is played on the accents in odd-metered measures
-|-----|--------|-------------------------------------------------------------
-|-----|*------*|-------------------------------------------------------------
-|-3---|--5-----|-------------------------------------------------------------
-|-----|*------*|-------------------------------------------------------------
-|-----|-----3--|-------------------------------------------------------------
                                                                              

After the solo section everything follows the forms from the beginning.
"            
Submit corrections

comments powered by Disqus
↑ Back to top | Queensryche Bass for Revolution Calling. Lyrics for acoustic guitar and electric guitar. Tablatures and chords are parodies/interpretations of the original songs. You may use it for private study, scholarship, research or language learning purposes only