» » »

Queensryche, Operation: Mindcrime Tabs (ver.1)

Artists:  A B C D E F G H I J K L M N O P Q R S T U V W X Y Z # 

Operation: Mindcrime Tabs (ver.1)

Queensryche Tabs
 Rating:
4/5 (4 votes)
Operation: Mindcrime lessons Tabs too difficult? Try these video lessons and learn fast
                Track: no.4

------------------------------------------------------------------------

Intro (x3)
|--------------------------|                                \
|--------------------------|                                 \       
|-----------------------9--|                                  \
|-----------------------9--|                                   \
|------4-----4/5--------7--|                                    \
|---2-----2----------------|                                     \
                                                                  \
right after that on the fourth part of the intro play this         A
                                                                  / 
|-------------------------------|                                /
|-------------------------------|                               / 
|--------------------4-2--------|                              /
|--------------------4-2-2-4----|                             /
|------4-----4/5-----2-0-2-4----|                            /
|---2-----2--------------0-2----|                           /

--------------------------------------------------------------------------

Then play this on the heavier part

|---------------------------------------------|    \
|-------------3-----------------3-------------|     \
|-------------2-----------------2-------2--1--|      \
|-------------0-----------------0---2---2--2--|       \
|------4------0----------4------0---2---------|        \
|---2-----2--------0--2-----2-------0---------|         \
                                                         \
Then the second part of that play this                    B   
                                                         /
|--------------------------------------------|          /
|-----------------3--------------------------|         /
|-----------------2------------------4-2-----|        /
|-----------------0------------------4-2-2-4-|       /
|---------4-------0----------4-------2-0-2-4-|      /
|---0--2-----2------------2-----2--------0-2-|     /

---------------------------------------------------------------------------

Verse (x2)

|-----------------------------------------|   \
|-----------------------------------------|    \
|----------2----------------------2-------|     \
|---4--4---2---4--4--------4--4---2---2~--|      C
|---4--4---0---4--4--------4--4---0---2~--|     /
|---2--2-------2--2--------2--2-------0~--|    /

after the second time play this part (like the intro)

|-----------------------------------------------|    \
|-----------------------------------------------|     \
|-------------------9---------------------------|      \
|-------------------9---------------------7--6--|       A
|------4------4/5---7-------4------4/5----7--6--|      /
|---2-----2--------------2-----2----------5--4--|     /

then play this two more times until the bridge

|-----------------------------------------|    \
|-----------------------------------------|     \ 
|----------2----------------------2-------|      \
|---4--4---2---4--4--------4--4---2---2~--|       C
|---4--4---0---4--4--------4--4---0---2~--|      /
|---2--2-------2--2--------2--2-------0~--|     /

-----------------------------------------------------------------

the bridge goes like this

|---------------------------------------------|        \
|---------------------------------------------|         \      
|-6-----6-----6~9------6-----6-----6~4--------|          \
|-6-----6-----6~9------6-----6-----6~4--------|           \
|-4-4-4-4-4-4-4~7----0~4-4-4-4-4-4-4~2--------|            \
|---------------0-----------------------------|             \
                                                             \
continued                                                     D
                                                             / 
|-----------------------------------0-------0------|        / 
|-------------------------------------0-------0----|       /
|---6-----6-----6~2-----2~4------~|-----1-------1--|      /
|---6-----6-----6~2-----2~4------~|-------2--------|     /
|-0~4-4-4-4-4-4-4~0-----0~2------~|----------------|    /
|--------------------------------------------------|   /

------------------------------------------------------------------
                   
then the chorus is  except last note is a B 

|---------------------------------------------|   \
|---------------------------------------------|    \
|----------2----------------------2--\-\------|     \
|---4--4---2---4--4--------4--4---2---2~4-----|      C
|---4--4---0---4--4--------4--4---0---2~4-----|     /
|---2--2-------2--2--------2--2-------0~2-----|    /
                                     / /
------------------------------------------------------------------

solo (rythem) part 1 is 

part 2 is     
              play to drum feel
|------------------------------------------------------|
|------------------------------------------------------|
|--------------------------------------------1--2--1---|
|-6-----6-----6---6-6---6---2----------------2--2--2---|
|-6-----6-----6---6-6---6---2--ring out----------------|
|-4-4-4-4-4-4-4-4-4-4-4-4-4-0--------------------------|

on last line of solo the end is
 
|--0-------0-----------|
|----0-------0---------|
|------1-------1-------|
|--------2-------------|
|----------------------|
|----------------------|

-------------------------------------------------------------------

play parts    and  til last line is

|---------------------------------------------|          
|-----------------3---------------------------|         
|-----------------2--------------4~~~---------|        
|-----------------0------4---4---4~~~ring-out-|       
|----------4------0------4---4---2~~~---------|
|----0--2-----2----------2---2----------------|     
 
----------------THE END-------------------------------------------
                                                            _
play like a ROCKETT.                 SuperBobbyRockett     (_3====kK

------------------------------------------------------------------
file is the author's own work and represents their interpretation 
of the song.
            
Submit corrections

comments powered by Disqus
↑ Back to top | Queensryche Tabs for Operation: Mindcrime. Lyrics for acoustic guitar and electric guitar. Tablatures and chords are parodies/interpretations of the original songs. You may use it for private study, scholarship, research or language learning purposes only