» » »

Queensryche, My Empty Room Tabs (ver.1)

Artists:  A B C D E F G H I J K L M N O P Q R S T U V W X Y Z # 

My Empty Room Tabs (ver.1)

Queensryche Tabs
 Rating:
3.6/5 (5 votes)
My Empty Room lessons Tabs too difficult? Try these video lessons and learn fast
                

-5------------------14-------------------10------------------7----------------|
----0-------------------12-------------------8------------------5-----------*-|
-------0--------------------0-------------------0------------------0----------|
-------------5--------------------14------------------10-----------------7----|
----------0--------------------0-------------------0------------------0-----*-|
------------------------------------------------------------------------------|
 Empty room today . . .

------------------------------------------------------------------------------|
------------------------------------------------------------------------------|
------------------------------------------------------------------------------|
-5-------------------------7-------------------------5------------------------|
-5-------------------------7-------------------------5------------------------|
-3-----3---5--b7--r5---3---5-----7---7b8----r7---\---3-----3---5--b7--r5---3--|
  now who will come?????????  to wash away  my       sins . . ..

------------------------------------------------------------------------------|
------------x-----------------------------------------------------------------|
------------x-----------------------------------------------------------------|
--7---------x-----------------------------------------------------------------|
--7---------x-----------------------------------------------------------------|
--5---------x-----------------------------------------------------------------|


h  - hammer on
p  - pull off
* - trill
b  - bend (use tremolo bar for downbend)
r  - release bend
/  - slide up
\  - slide down
v  - vibrato
t  - tap (with strumming hand)
x  - fret-hand muting
^ -  natural harmonics
ph- artificial (pinch) harmonics
PM palm mute
                    -\----------/-----------------------------|
Lines going diagonally up and down   --\--------/-------------|
These mean whammy bar                     --\------/----------|
          -                                    --\----/-------|
\ - bar down
/- bar up
            
Submit corrections

comments powered by Disqus
↑ Back to top | Queensryche Tabs for My Empty Room. Lyrics for acoustic guitar and electric guitar. Tablatures and chords are parodies/interpretations of the original songs. You may use it for private study, scholarship, research or language learning purposes only