>
 >
Last Time In Paris

Last Time In Paris Guitar Tabs

Queensryche - Last Time In Paris chords, tabs, tablatures, lyrics

Guitar lessons | Add/correct | Request | Top 50 tabs Artists:  A B C D E F G H I J K L M N O P Q R S T U V W X Y Z 0-9

Last Time In Paris Guitar Tabs – Queensryche

CD, Sheet music, Poster

Do you like Last Time In Paris? Share with your friends now
Tabs
----------------------------------------------------------------------------
----------------------------------------------------------------------------

Tuning: Standard

Intro:
 vol. swell
e|--------------------------------------------------------------------------|
B|--3--3--3--2-----3--3--3--2-----3--3--3--2--------------------------------|
G|--2--2--2--2-----2--2--2--2-----2--2--2--2----3---5---7-------------------|
D|--0--0--0--0-----0--0--0--0-----0--0--0--0----3---5---7-------------------|
A|----------------------------------------------1---3---5-------------------|
E|--------------------------------------------------------------------------|

e|--------------------------------------------------------------------------|
B|--3--3--3--2-----3--3--3--2-----3--3--3--2--------------------------------|
G|--2--2--2--2-----2--2--2--2-----2--2--2--2----3----5---7------------------|
D|--0--0--0--0-----0--0--0--0-----0--0--0--0----3----5---7------------------|
A|----------------------------------------------1----3---5------------------|
E|--------------------------------------------------------------------------|

Lead: w/slide

e|--------------------------------------------------------------------------|
B|---/10-\9-/12--\7~~~------/10-\9------------------------------------------|
G|-----------------------------------/9--/11~~~-----------------------------|
D|--------------------------------------------------------------------------|
A|--------------------------------------------------------------------------|
E|--------------------------------------------------------------------------|

verse:

e|--------------------------------------------------------------------------|
B|--10--10--10--8----6--6--6---8----10--10--10---8-----2--3---3--*----------|
G|--7---7---7---7----5--5--5---5----7---7---7----7-----2--2---2---repeat----|
D|--0---0---0---0----0--0--0---0----0---0---0----0-----0--0---0-------------|
A|------------------------------------------------------------0--*----------|
E|--------------------------------------------------------------------------|

pre - chorus:

e|--------------------------------------------------------------------------|
B|--2--3--------------------------------------------------------------------|
G|--2--2-----------------3---5---7------------------------------------------|
D|--0--0----7------------3---5---7-----back-to-intro-then-verse-------------|
A|----------7---repeat---1---3---5------------------------------------------|
E|----------5---------------------------------------------------------------|

chorus:

e|--------------------------------------------------------------------------|
B|--------------------------------------------------------------------------|
G|--7----9---9/--12---10--10/--14----7----7-7-7--6-----3---5----------------|
D|--7----9---9/--x----10--10/--x-----7----7-7-7--7-----3---5----------------|
A|--5----7---7/--10---8---8/---12----5----5-5-5--5-----1---3----------------|
E|--------------------------------------------------------------------------|

rythm during solo:
                                                          2nd time cut short
e|--------------------------------------------------------------------------|
B|--------------------------------------------------------------------------|
G|--------------------------------------------------------------------------|
D|---7--7--7--7--7--7--7--7--7--7--7--7--7--7--7----------------repeat------|
A|---7--7--7--7--7--7--7--7--7--7--7--7--7--7--7----------------------------|
E|---5--5--5--5--5--5--5--5--5--5--5--5--5--5--5--5--x--5--7----------------|

solo:
    w/slide                     slide off
e|----------------------------------------------------------------------------|
B|--14\-----------------------------------------------10----------------------|
G|--14\----0-/-2~~---/6-7-9~~---12--9-----12--9----12-----12--9---------------|
D|------------------------------------11--------11----------------------------|
A|----------------------------------------------------------------------------|
E|----------------------------------------------------------------------------|
                                        whammy bar down
e|--------------------------------------------------------------------------|
B|--10-------10--14-14--------14-14-------------<5>------------------------|
G|-----12--9-----------14-12--------14-12-------------<5>---------------|
D|--------------------------------------------------------------------------|
A|--------------------------------------------------------------------------|
E|--------------------------------------------------------------------------|
     w/slide
e|-------------------------------/15--15-15-15--/15--15-15------------------|
B|-------------------14----14-------------------------------14\\\-----------|
G|---6--7--9~~---/14----14--------------------------------------------------|
D|--------------------------------------------------------------------------|
A|--------------------------------------------------------------------------|
E|--------------------------------------------------------------------------|

e|----------------------------------------------------------------------------|
B|-----14---------12\\\---////---\\\\-----------------------------------------|
G|-/14----/14\-12-------------------------------------------------------------|
D|----------------------------------------------------------------------------|
A|----------------------------------------------------------------------------|
E|----------------------------------------------------------------------------|

chorus fill:

e|--------------------------------------------------------------------------|
B|--------------------------------------------------------------------------|
G|--3---5---7---7--7--7--7--7--7----7---------------------------------------|
D|--3---5---7---7--7--7--7--7--7----7-------to chorus-----------------------|
A|--1---3---5---5--5--5--5--5--5----5---------------------------------------|
E|--------------------------------------------------------------------------|

outro solo: w/slide

e|--------------------------------------------------------------------------|
B|-----------------------------------------/15-13~--13----13--11~-----------|
G|---/11--/11--9--10~~----11\\\---///7~~---------------12-------------------|
D|--------------------------------------------------------------------------|
A|--------------------------------------------------------------------------|
E|--------------------------------------------------------------------------|

e|--------------------------------------------------------------------------|
B|--11--10--11-/--15~---/18--/17---/19~~~~----------------------------------|
G|--------------------------------------------------------------------------|
D|--------------------------------------------------------------------------|
A|--------------------------------------------------------------------------|
E|--------------------------------------------------------------------------|

A great song by Queensryche....more to come from me..

|   whammy bar down
| /  slide up
| \  slide down
| h  hammer-on
| p  pull-off
| ~  vibrato
| <> harmonic
| x  Mute note
===============================================================================





Comments


Popular Queensryche tabs & chords
Anarchy-X 1 Bass Tabs
Anarchy-x Bass Tabs
Bridge Chords
Silent Lucidity (Solo) Chords
Electric Requiem Tabs
I Am I Tabs
Jet City Woman Tabs
Queen Of The Reich 4 Tabs
Someone Else Ukulele
The Hands Ukulele


Song lyrics



↑ Back to top | Tablatures and chords are parodies/interpretations of the original songs. You may use it for private study, scholarship, research or language learning purposes only
© 2014 AZChords.com Contact us | Privacy policy | DMCA | Add/correct tabs | Request tabs | Top 50 tabs