>
 >
Jet City Woman 1

Jet City Woman 1 Guitar Tabs

Queensryche - Jet City Woman 1 chords, tabs, tablatures, lyrics

Guitar lessons | Add/correct | Request | Top 50 tabs Artists:  A B C D E F G H I J K L M N O P Q R S T U V W X Y Z 0-9

Jet City Woman 1 Guitar Tabs – Queensryche

CD, Sheet music, Poster

Do you like Jet City Woman 1? Share with your friends now
Bass TabsDrum TabsTabsTabs v2
-------------------------------------------------------------------------------
                             Jet City Woman - Queensryche
-------------------------------------------------------------------------------


Tuning: Standard

e|-----14----12--------------------------------------------------------------|
B|--12----------12~--11b12r11b12r11b12r11b12r11--9~---7-7/9~--4-5br-4-2~-0---|
G|---------------------------------------------------------------------------|
D|---------------------------------------------------------------------------|
A|---------------------------------------------------------------------------|
E|---------------------------------------------------------------------------|
 Solo Riff 1                                                  Use Wammy at end
e|--4----6-----7--------4----6-----9--------12----14-------------------------|
B|--7b9--9b11--10b12----7b9--9b11--12b14----15b17----(17)~--14P12--14~--12~--|
G|---------------------------------------------------------------------------|
D|---------------------------------------------------------------------------|
A|---------------------------------------------------------------------------|
E|---------------------------------------------------------------------------|
                                            HOLD BEND
e|-------------15B16-14~--12-14-11-12----11----------------------------------|
B|--12P11-----------------------------14----12~------------------------------|
G|--------11~----------------------------------------------------------------|
D|---------------------------------------------------------------------------|
A|---------------------------------------------------------------------------|
E|---------------------------------------------------------------------------|

e|---------------------------------------------------------------------------|
B|--------0-------0-------0-------0-------0-------0-------0------------------|
G|------4-------4-------4-------4-------4-------4-------4-------4-3----------|
D|----6-------6-------6-------6-------6-------6-------6-------6--------------|
A|---------------------------------------------------------------------------|
E|--4-------4-------2-------2-------1-------1-------0-------0----------------|

e|---------------------------------------------------------------------------|
B|--------0-------0-------0-------0-------0-------0-------0-------0----------|
G|------4-------4-------4-------4-------4-------4-------6-------6------------|
D|----6-------6-------6-------6-------6-------6-------6-------6--------------|
A|----------------------------------2-------2-------4-------4----------------|
E|--4-------4-------2-------2------------------------------------------------|

e|---------------------------------------------------------------------------|
B|--------0-------0-------0-------0-------0-------0-------0-------0----------|
G|------4-------4-------6-------6-------6-------6-------6-------6------------|
D|----6-------6-------6-------6-------6-------6-------6-------6--------------|
A|----------------------------------2-------2-------4-------4----------------|
E|--4-------4-------6-------6------------------------------------------------|
 Last time (also used before main guitar solo)
e|---------------------------------------------------------------------------|
B|---------------------------------------------------------------------------|
G|-----4/8---8/9---9-11--11-------13-------13----4/8---8/9---9/11---13\11----|
D|--2--x-x---x-x---x-x---x--------13-------13-2--x-x---x-x---x-x----x--x-----|
A|--2--2/6-x-6/7-x-7/9-x-9--------11-------11-2--2/6-x-6/7-x-7/9--x-11\9-----|
E|--0------x-----x-----x----xx-xx----xx-xx----0------x-----x------x----------|
 Pre Chorus
e|----------14b15r14~-|------------------------------------------------------|
B|-12-11-12-----------|------------------------------------------------------|
G|--------------------|-4brb-4-3--4brb-4-3--6brb-6-4--8br-6-4--4-6-----------|
D|--------------------|------------------------------------------------------|
A|--------------------|------------------------------------------------------|
E|--------------------|------------------------------------------------------|
                      Chorus
e|---------------------------------------------------------------------------|
B|-----------------------------------------7/9~------------------------------|
G|--4brb-4-3--4brb-4-3--6brb-6-4--/8-6~--6-----------------------------------|
D|---------------------------------------------------------------------------|
A|---------------------------------------------------------------------------|
E|---------------------------------------------------------------------------|
                                               Feedback
e|-----14--5+-------18/19\18/19\18/19\18/19\18--16~--------------------------|
B|--12-------5+--------------------------------------------------------------|
G|---------------------------------------------------------------------------|
D|---------------------------------------------------------------------------|
A|---------------------------------------------------------------------------|
E|---------------------------------------------------------------------------|
 Solo Riff 2
e|---------------------------------------------------------------------------|
B|----------7b-------------6-6~--4-------------------------------------------|
G|------6---7b---8-8-8-6~--6-6~--4-------------4-----4-6b7r6p4-6--6p4--------|
D|------6---------------------------4h6-6~-4h6---4h6------------------6------|
A|-2/4--4--------------------------------------------------------------------|
E|---------------------------------------------------------------------------|
 Main Guitar solo
e|---------------------------10----10----------------------------------------|
B|--------11-12-12b13-11-12--13b15-(15)-14b15r14p12--------------------12----|
G|--11/13-------------------------------------------13~--11/13~--11h13-------|
D|---------------------------------------------------------------------------|
A|---------------------------------------------------------------------------|
E|---------------------------------------------------------------------------|

e|---------------------------------------------------------------------------|
B|-14p12----12-------14----14b15r14---------12~----12----------12------------|
G|-------13----13/15----15-15b16r15-13-11~--13~-15----13~--13b----13b14r13p11|
D|---------------------------------------------------------------------------|
A|---------------------------------------------------------------------------|
E|---------------------------------------------------------------------------|

e|---------------14--------14------------------------------------------------|
B|-----12-15b16---(16)r-14~---14-12----141214161412-141214161412-141214161412|
G|-13~------------------------------13~--------------------------------------|
D|---------------------------------------------------------------------------|
A|---------------------------------------------------------------------------|
E|---------------------------------------------------------------------------|
                                      
e|---------------------------------------------------------------------------|
B|--18p16p14-18p16p14-18p16p14-18p16p14-18p16p14--16-18-19p18p16-19p18p16----|
G|---------------------------------------------------------------------------|
D|---------------------------------------------------------------------------|
A|---------------------------------------------------------------------------|
E|---------------------------------------------------------------------------|
                                      
e|-----------------------------------------19b21r19-16~----------------------|
B|-19p18p16-19p18p16-19p18p16-19b21r19-16~-----------------------------------|
G|---------------------------------------------------------------------------|
D|---------------------------------------------------------------------------|
A|---------------------------------------------------------------------------|
E|---------------------------------------------------------------------------|
                                      
e|---------------------------------------------------------------------------|
B|---------------------------------------------------------------------------|
G|------4/8---8/9---9-11--13\11--11/13--13/15---15-16\15--13-----------------|
D|--2---x-x---x-x---x-x---x--x---x-x----x--x----x--x--x---x------------------|
A|--2-x-2/6-x-6/7-x-7/9-x-11\9-x-9/11-x-11/13-x-13-14\13--11-----------------|
E|--0-x-----x-----x-----x------x------x-------x------------------------------|
                   
e|---------------------------------------------------------------------------|
B|---------------------------------------------------------------------------|
G|-13--11-13-13--11---13-11-13-----------------------------------------------|
D|-13--11-13-13--11---13-11-13-----------------------------------------------|
A|-11--9--11-11--9----11-9--11-----------------------------------------------|
E|---------------------------------------------------------------------------|
Ending

The end of the Solo is off, so just use mine as a diagram for the right one, or
if you know the right ending to the solo, please add it, as I cannot figure it
out. Rock On!

| /  slide up
| \  slide down
| h  hammer-on
| p  pull-off
| ~  vibrato
| +  harmonic
| x  Mute note

===============================================================================





Comments


Popular Queensryche tabs & chords
Operation: Mindcrime Bass Tabs
The Mission Bass Tabs
Bridge Chords
Anarchy X Tabs
Anarchy-x Tabs
I Will Remember Tabs
Operation: Mindcrime 1 Tabs
Suite Sister Mary Tabs
Two Miles High Tabs
Until There Was You Ukulele


Song lyrics



↑ Back to top | Tablatures and chords are parodies/interpretations of the original songs. You may use it for private study, scholarship, research or language learning purposes only
© 2014 AZChords.com Contact us | Privacy policy | DMCA | Add/correct tabs | Request tabs | Top 50 tabs