>
 >
Get A Life

Get A Life Guitar Tabs

Queensryche - Get A Life chords, tabs, tablatures, lyrics

Guitar lessons | Add/correct | Request | Top 50 tabs Artists:  A B C D E F G H I J K L M N O P Q R S T U V W X Y Z 0-9

Get A Life Guitar Tabs – Queensryche

CD, Sheet music, Poster

Do you like Get A Life? Share with your friends now
Tabs
----------------------------------------------------------------------------
----------------------------------------------------------------------------

Tuning: standard

Intro: dist.

e|--------------------------------------------------------------------------|
B|--------------------------------------------------------------------------|
G|---------------/9----------------------------------------repeat-----------|
D|--4--4--4----------11--9\-----4--4--4---------11--9\----------------------|
A|--4--4--4---------------------4--4--4-----/9------------------------------|
E|--2--2--2---------------------2--2--2-------------------------------------|

Verse:

e|----------------0--------------0-------------0--------------0-------------|
B|------------------0--------------0-------------0--------------------------|
G|-------------6--------------6-------------6-------------6-----------------|
D|---4-------4--------------4-------------4-------------4-------------------|
A|---4----------------------------------------------------------------------|
E|---2----------------------------------------------------------------------|
                     feedback.
Guitar 2 verse:

e|--------------------------------------------------------------------------|
B|--------------------------------------------------------------------------|
G|--------------------------------------------------------------------------|
D|----------------4----------------4----------------4-----------4-----------|
A|----------------4----------------4----------------4-----------4-----------|
E|-----2--3--x----2------2--3--x---2-----2--3--x----2-----2--3--2-----------|

Pre-chorus:

e|---------------------0----------------------------------------------------|
B|---------5------------------4---------------------------------------------|
G|----7------7----6------6------6--------------------4---4---4/-6---4-------|
D|----7-----------6--------6----------2---2--2--2----4---4---4/-6---4-------|
A|----5-----------4-------------------2---2--2--2----2---2---2/-4---2-------|
E|------------------------------------0---0--0--0---------------------------|
  2nd time around
e|--------0-----------------------------------------------------------------|
B|---------------4----------------------------------------------------------|
G|---6------6------6--------------------------------------------------------|
D|---6--------6---------2---2---2---2---2---2---2---2---2---2---------------|
A|---4------------------2---2---2---2---2---2---2---2---2---2---------------|
E|----------------------0---0---0---0---0---0---0---0---0---0---------------|
                          pm.................................
Chorus:

e|------------------0----------0--------------------------------0-----------|
B|--------------------0----------0--------------------------------0---------|
G|---5--5---4---4---------4---------------------5--5---4---4----------------|
D|---3--3---4---4---------4-----------5---5-----3--3---4---4----------------|
A|----------2---2---------2-----------5---5------------2---2----------------|
E|------------------------------------3---3---------------------------------|

e|------0-------------------------------------------------------------------|
B|--------0-----------------------------------------------------------------|
G|---4----------------------------------------------------------------------|
D|---4--------5----5--------------------------------------------------------|
A|---2--------5----5--------------------------------------------------------|
E|------------3----3--------------------------------------------------------|
                     Then back to intro and verse, Then solo:
Solo:
e|-----17~-------------------------------------------------------------------|
B|---------17~---------------------------------------------------------------|
G|--------------16~-15~--11~--9~---------------------------------------------|
D|---------------------------------11---9---8/9\8----------------------------|
A|-------------------------------------------------7-------------------------|
E|---------------------------------------------------------------------------|

e|--------------------------------------------------------------------------|
B|--------------------------------------------------------------------------|
G|--------------------------------------------------------------------------|
D|----------------------------------------------------------/4~~------------|
A|--7-/-9----4---4-/-7---2--1------------/4--2-----1--2--1------------------|
E|------------------------------2---0---------------------------------------|

e|--------------------------------------------------------------------------|
B|-----------------------------------------9b10---9--7----------------------|
G|--11-10-11-10-11--13---9b10---6-----6-----------------9---4b5-5p4-----4---|
D|---------------------------------9---------------------------------7------|
A|--------------------------------------------------------------------------|
E|--------------------------------------------------------------------------|

e|-------------------------------------------------------------------12-----|
B|-------------------------------7--10--9--------------12b14--12b14---------|
G|--------7-------------------7-----------10----10--------------------------|
D|--5--7--7------------5-/-7-----------------9-----9------------------------|
A|-------------/5-4-5-------------------------------------------------------|
E|--------------------------------------------------------------------------|

e|---------12---12---12---12---12---12---12---------------------------------|
B|--14b12--12---12---12---12---12---12---12---------------------------------|
G|--------------------------------------------------------------------------|
D|--------------------------------------------------------------------------|
A|--------------------------------------------------------------------------|
E|--------------------------------------------------------------------------|

Solo outro:

e|---18---------13----------------------------------------------------------|
B|------17---------12------12---------12--------12---------12---------------|
G|---------15---------14-------14b16-----14b16------14b16------14b16r14--11-|
D|--------------------------------------------------------------------------|
A|--------------------------------------------------------------------------|
E|--------------------------------------------------------------------------|

e|--------------------------------------------------------------------------|
B|----------12--------12---------12------------------------12--------12-----|
G|---14b16------14b16------14b16------14b16r14--11---14b16-----14b16--------|
D|--------------------------------------------------------------------------|
A|--------------------------------------------------------------------------|
E|--------------------------------------------------------------------------|

e|--------------------------------------------------------------------------|
B|---------12--------12-----------------12---------12---------12------------|
G|---14b16-----14b16------14b16r14--11-------14b16------14b16------14b16----|
D|--------------------------------------------------------------------------|
A|--------------------------------------------------------------------------|
E|--------------------------------------------------------------------------|

e|--------------------------------------------------------------------------|
B|--12---------12----------12b13--------------------------------------------|
G|-------14b16------14b16---------11~~~~~--------------camera shot----------|
D|--------------------------------------------------------------------------|
A|--------------------------------------------------------------------------|
E|--------------------------------------------------------------------------|


| p  pull-off
| b  bend
| /  slide up
| \  slide down
| h  hammer-on
| p  pull-off
| ~  vibrato
| +  harmonic
| x  Mute note
===============================================================================





Comments


Popular Queensryche tabs & chords
Revolution Calling 1 Bass Tabs
Sign Of The Times 1 Bass Tabs
Another Rainy Night Tabs
Jet City Woman 1 Tabs
Operation: Mindcrime 1 Tabs
Queen Of The Reich Tabs
Queen Of The Reich 1 Tabs
Queen Of The Reich 2 Tabs
The Needle Lies Tabs
Waiting For 2 Tabs


Song lyrics



↑ Back to top | Tablatures and chords are parodies/interpretations of the original songs. You may use it for private study, scholarship, research or language learning purposes only
© 2014 AZChords.com Contact us | Privacy policy | DMCA | Add/correct tabs | Request tabs | Top 50 tabs