>
 >
Eyes Of A Stranger

Eyes Of A Stranger Guitar Tabs

Queensryche - Eyes Of A Stranger chords, tabs, tablatures, lyrics

Guitar lessons | Add/correct | Request | Top 50 tabs Artists:  A B C D E F G H I J K L M N O P Q R S T U V W X Y Z 0-9

Eyes Of A Stranger Guitar Tabs – Queensryche

CD, Sheet music, Poster

Do you like Eyes Of A Stranger? Share with your friends now
Tabs


------------------------------------------------------------------------------|
------------------------------------------------------------------------------|
------------------------------------------------------------------------------|
-2-------4--------5-------4-------2-------4------5--------7-------------------|
-------------------------------------------------------------------0----------|
------------------------------------------------------------------^5----------|
 intro- Nikki in the hospital                                   vol. up

------7-----5-----2-----3------------7-----5-----2-----3-----5----------------|
---0-----0-----0-----0--1---3-----0-----0-----0-----0--1-----3----------------|
----------------------------0-------------------------------------------------|
------------------------------------------------------------------------------|
------------------------------------------------------------------------------|
------------------------------------------------------------------------------|
 intro

--------------------------------------------------5-h8--7--5------------------|
-----5-------5---7--b8------8b10---7---5---7--8--------------10--8--7--10--8--|
------------------------5-----------------------------------------------------|
------------------------------------------------------------------------------|
------------------------------------------------------------------------------|
------------------------------------------------------------------------------|
 vol. swell  section played with Harmonizer in E minor

------------------------------------------------------------------------------|
--7--8--7--5------------------------------------------------------------------|
--------------7--5--4--5--4--2--5--4--2---------------------------------------|
-----------------------------------------2------------------------------------|
-----------------------------------------2------------------------------------|
-----------------------------------------0------------------------------------|


--0----------0---------------0----------0----|--0------|-0----0------0----0---|
--0----------0-------0-h-2---0----------0----|--2-h-3-*|-0------0----0--------|
--2----------1-------1-------2----------1----|---------|-2--------2--2--------|
--4----------2---------------4----------2----|---------|-4-----------1--------|
---------------------------------------------|--------*|----------------------|
---------0--------------------------0--------|---------|----------------------|
 all alone now . . .                           end #1    end #2

------|-----------------------------------------------------------------------|
-0---*|-----------------------------------------------------------------------|
---1--|-----------------------------------------------------------------------|
------|-----------------------------------------------------------------------|
-----*|-----------------------------------------------------------------------|
------|-----------------------------------------------------------------------|
        don't play end # 1 3rd time

------------------------------------------------------------------------------|
-----------3------------------------------------------------------------------|
---5----------5----------------------------4--2---------4-------------5-------|
---5-------------4--------5--4------2--2---2--0---------2----4---7----5-------|
---3----------------3-----------5---2--2----------------2----5--------3-------|
------------------------------------0--0----------0-0------0------------------|
 chorus

-----------------|----------------------------------------------|-------------|
-3---------------|---------------------------------------------*|-------------|
---5-----------7-|----9-------------2-h-4-----------------------|----9--------|
-------4-------7-|-/--9-------------0----------2----------4--5--|-/--9--------|
-----3---3-----5-|----7-------------0----------2----------5--5-*|----7--------|
-----------------|----0--------0-0---------0-0------0-0---------|----0--------|
                    end #1                                        is this

------------------------------------------------------------------------------|
------------------------------------------------------------------------------|
------------------------------------------------------------------------------|
-------7-h-9-----10-------7------9--------7-h-9-----10-------7------9---------|
-------7---------7--------9------7--------7---------7--------9------7---------|
---0-0-------0-0------0-0----0-0------0-0-------0-0------0-0----0-0-----------|
 all that's left . . .

-----------------------------|-----------------7--0-----0-----0--0--------0---|
----------------------------*|-----------------------7-----8-----5--/--7------|
-----------------------------|--2---------------------------------------------|
-----10-----0--------9-h-10--|--2----------4----------------------------------|
-----7------9--------9------*|--0----------2---2------------------------------|
-0-0----0-0------0-0---------|-----------------0------------------------------|
                               pre-solo riff

----0--0--0-------------------------------------------------------------------|
-5-----1--0-------------------------------------------------------------------|
------------------------------------------------------------------------------|
------------------------------------------------------------------------------|
---------------5--/--7-----7--7---5----9-----9--9---10--9--x--x--7------------|
------------------------------------------------------------------------------|

------------------------------------------------------------------------------|
------------------------------------------------------------------------------|
----------------------------------------7-h-9---12-12-12-11-9v----12b14--r11--|
------------------------------------------------------------------------------|
-5--/--7----12--b14--12-----14p12p9v------------------------------------------|
------------------------------------------------------------------------------|


--------------------------------------/10-------------------------------------|
-------------------------------------------12-11-12-11---10--8-----10---------|
-h12p11-------7-h-9---12-11-12-11-9-----------------------------9-------------|
---------10-------------------------------------------------------------------|
------------------------------------------------------------------------------|
------------------------------------------------------------------------------|


------------------------------------------------------------------------------|
-10p8p7h8p7---7---------------------------------------------------------------|
------------9------9--11--12v--5--7b9r7--7--9--11--12---14--14--12--11--12----|
------------------------------------------------------------------------------|
------------------------------------------------------------------------------|
------------------------------------------------------------------------------|
                   Harmonizer in Gminor

------/15--15--14--12--12--14--b15--r14--8--10b12r12--10--12v--14--15v--------|
------------------------------------------------------------------------------|
-14v--------------------------------------------------------------------------|
------------------------------------------------------------------------------|
------------------------------------------------------------------------------|
------------------------------------------------------------------------------|


-15-17-15-14-15-14-12-14-12-10-12-10-9-10-9-7-9-10----------------------------|
---------------------------------------------------10p8p7---------------------|
----------------------------------------------------------7v------------------|
------------------------------------------------------------------------------|
------------------------------------------------------------------------------|
------------------------------------------------------------------------------|


------------------------------------------------------------------------------|
------------------------------------------------------------------------------|
-4--------5----2-------4------------------------------------------------------|
-4--------5----2-------4---2--4---------------7---9---7---5-------------------|
-2--------3----0-------2---2----3---5---5-----7---7---7---5---5---5-----------|
------------------------------------3---2-----5---5---5---3---2---0-----------|
 how many times

------------------------------------------------------------------------------|
------------------------------------------------------------------------------|
------------------------------------------------------------------------------|
-7--------7-----5---------5---------------------------------------------------|
-7--------7-----5----2----5---------------------------------------------------|
-5--------5--\--3----0----3---------------------------------------------------|
 why am I here

------------------------------------------------------------------------------|
------------------------------------------------------------------------------|
----------------------------------------------------------------12--11-12-----|
---------------------------------------------7b9--r7v----9------10--9--10-----|
-5--7--7-7--5--7--7-7--5--7--7-7--5--7--7-7--------------7--------------------|
------------------------------------------------------------------------------|
 final riff of the album- do while repeating various riffs from other songs

--------------|---------------------------------------------------------------|
-------------*|---------------------------------------------------------------|
-14--12--14---|---------------------------------------------------------------|
-12--10--10---|---------------------------------------------------------------|
-------------*|---------------------------------------------------------------|
--------------|---------------------------------------------------------------|


h  - hammer on
p  - pull off
* - trill
b  - bend (use tremolo bar for downbend)
r  - release bend
/  - slide up
\  - slide down
v  - vibrato
t  - tap (with strumming hand)
x  - fret-hand muting
^ -  natural harmonics
ph- artificial (pinch) harmonics
PM palm mute
                    -\----------/-----------------------------|
Lines going diagonally up and down   --\--------/-------------|
These mean whammy bar                     --\------/----------|
          -                                    --\----/-------|
\ - bar down
/- bar up





Comments


Popular Queensryche tabs & chords
Sign Of The Times Bass Tabs
I Don't Believe In Love Tabs
Operation: Mindcrime 1 Tabs
Queen Of The Reich 1 Tabs
Queen Of The Reich 2 Tabs
Roads To Madness Tabs
Take Hold Of The Flame 1 Tabs
The Needle Lies Tabs
Tribe Tabs
The Great Divide Ukulele


Song lyrics



↑ Back to top | Tablatures and chords are parodies/interpretations of the original songs. You may use it for private study, scholarship, research or language learning purposes only
© 2014 AZChords.com Contact us | Privacy policy | DMCA | Add/correct tabs | Request tabs | Top 50 tabs