>
 >
Empire 1

Empire 1 Guitar Tabs

Queensryche - Empire 1 chords, tabs, tablatures, lyrics

Guitar lessons | Add/correct | Request | Top 50 tabs Artists:  A B C D E F G H I J K L M N O P Q R S T U V W X Y Z 0-9

Empire 1 Guitar Tabs – Queensryche

CD, Sheet music, Poster

Do you like Empire 1? Share with your friends now
Bass TabsTabsTabs v2Tabs v3
"Empire" by Queensryche
I would like to say I did use "parts of version 2" and the Solo version to make this, 
the other parts I did figure out to the best of my ability...such as the outro guitar 2, 
the very last 3 bars of the song im not so positive about...

Q=81 (I think)
Tunning: STANDARD
Intro 4/4
|---------------------------------|----------------------||x2
|o--------------------------------|---------------------o||
|--2-2--2-4-2-----2---5-4-----5---|-7-5-----7---5--4h5-7-||
|--2-2--3-3-3-----3---3-3-----3---|-5-5-----5---5--5---5-||
|o-0-0--------0-0---0-----0-0---0-|-----0-0---0---------o||
|---------------------------------|----------------------||

Intro x2
|----------------------------------|----------------------------------------|
|-9b10r9---------------------------|-10--10-8--10-12--12-10-12-13--13-12-13-|
|--------9-10---10-b12r10--9h10----|----------------------------------------|
|-------------------------------12-|----------------------------------------|
|----------------------------------|----------------------------------------|
|----------------------------------|----------------------------------------|
                                                                              _____________
                     Verse $                                                 | 1 **
|-------------------||--fdbk--|-------|------------|---|-------|----|-3-----|------|-fdbk--||
|-13b15r13-12-12h13-||o(10)~~~|-------|------------|---|-------|----|-3-----|-8b10-|-(10)-o||
|-------------------||--------|-------|------------|---|-------|----|-4-----|------|-------||
|-------------------||--------|-----5-|------------|---|-----5-|----|-5--3--|------|-------||
|-------------------||o(7)----|--5--3-|-7----------|-7-|--5--3-|-7--|-5--3--|-7----|-(7)--o||
|-------------------||-(5)----|--3----|-5--7-(7)h8-|-5-|--3----|-5--|-3--1--|-5----|-(5)---||
*=Fdbk from 2nd time, and parenthesis 2nd time
**=Only on 1st & Verse

Pre-Chorus
|-------------------------------|-----------------------------|-------||
|-6---6-6-3--3-3--8--8-8-6--6-6-|-6--6-6-3--3-3---------------|-------||
|-5---5-5-2--2-2--7--7-7-5--5-5-|-5--5-5-2--2-2---5-5-5-5-5-5-|-------||
|-0---0-0-0--0-0--0--0-0-0--0-0-|-0--0-0-0--0-0---5-5-5-5-5-5-|-3/5-5-||
|-------------------------------|-----------------3-3-3-3-3-3-|-3/5-5-||
|-------------------------------|-----------------------------|-1/3-3-||

Play Intro x1(2nd time play Intro 3 times then go to Interlude(fill))
                                  2/4
|--------------------------------|----------------||
|--------------------------------|----------------|| D.S
|-2-2--2-4-2-----2---5-4-----5---|-7-5-----5-7----|| Al
|-2-2--3-3-3-----3---3-3-----3---|-5-5-----5-5--5-|| Coda
|-0-0--------0-0---0-----0-0---0-|-----0-0------3-||  ($)
|--------------------------------|----------------||

Interlude(fill)            Interlude ***
|--------------------|---||--0-----------------------|-----3--------------------||x4
|--------------------|---||o-3----3--3h5--3----5-6-5-|-3---3---5----5-6--5h6p5-o||
|-5-----5-----5-/7~~~|~~-||--2----3-------2----5-5-5-|-2---0---5----5-5--5------||
|-5--5--5--5--5-/7~~~|~~-||--0----0-------0----0-0-0-|-0-------0----0-0--0------||
|-3--5--3--5--3-/5~~~|~~-||o-------------------------|-------------------------o||
|----3-----3---------|---||--------------------------|--------------------------||
***=4th time, guitar 2 hits open D string in 8th notes while fading in

Guitar Solo
|-----------------20~-20-17-20b22-22-20p17----17----------------------------|
|-20b22~-22b20-17--------------------------20----20-17-20-17----17----------|
|------------------------------------------------------------19----19-17----|
|------------------------------------------------------------------------19-|
|---------------------------------------------------------------------------|
|---------------------------------------------------------------------------|

|------------------------------------------------------------------------------|
|------17-------------------17h18p17----17-------------------------------------|
|---17----17-19b21-19p17h19----------19----19-17-19-17-16-17-16----16----------|
|19-------------------------------------------------------------19----19-17-19-|
|------------------------------------------------------------------------------|
|------------------------------------------------------------------------------|

|----------------------------------------------------------------------|
|------------------------------------------------18-17-15b17-r15p13-15-|
|-19-17-15-19-17-15-19-17-15-19-17-15-19-17-15-19----------------------|
|----------------------------------------------------------------------|
|----------------------------------------------------------------------|
|----------------------------------------------------------------------|

|----------------------------------------------------------------------------------------------|
|-------------------------------------------------------15-16-15-18b20 20r18p15-18-18p15-18-15-|
|-12s10-10-10s9-9-9s7-7-7s9-9-9s10-20-19-19-17-15-17-17----------------------------------------|
|----------------------------------------------------------------------------------------------|
|----------------------------------------------------------------------------------------------|
|----------------------------------------------------------------------------------------------|

|-18b20-18p15----15-------------------|--------------||
|-------------18----18-16-15----15h16-|-16-15-16b18~-||
|----------------------------17-------|--------------||
|-------------------------------------|--------------||
|-------------------------------------|--------------||
|-------------------------------------|--------------||

Outro-Chorus
|---------------------------------|----------------------||x2
|o--------------------------------|---------------------o||
|--2-2--2-4-2-----2---5-4-----5---|-7-5-----7---5--4h5-7-||
|--2-2--3-3-3-----3---3-3-----3---|-5-5-----5---5--5---5-||
|o-0-0--------0-0---0-----0-0---0-|-----0-0---0---------o||
|---------------------------------|----------------------||
|
|(2nd time)
|---------------------------------|------------------------|
|---------------------------------|-----------------7--8---|
|---------------------------------|-----------6--7---------|
|---------------------------------|--9--7--9---------------|
|---------------------------------|------------------------|
|---------------------------------|------------------------|

  4/4                                                                                    
      2/2
|----------------------------------------|------------------------|
|o---------------------------------------|-----------------------o|
|---2--2--2--4--2------2---5--4------5---|-7----5---------5-----7-|
|---2--2--3--3--3------3---3--3------3---|-5----5---------5-----5-|
|o--0--0----------0--0---0------0--0---0-|--------0---0----------o|
|----------------------------------------|------------------------|
|
|----------------------------------------|------------------------|
|o-10--10-8-10-12--12-10-12-13--13-12-13-|-13b15-r13-12-12h13-10-o|
|----------------------------------------|------------------------|
|----------------------------------------|------------------------|
|o---------------------------------------|-----------------------o|
|----------------------------------------|------------------------|

  4/4                                                                                    
      2/2
|---------------------------------------|----------------------|
|---------------------------------------|----------------------|
|--2--2--2--4--2------2---5--4------5---|-7----5---------5---7-|
|--2--2--3--3--3------3---3--3------3---|-5----5---------5---5-|
|--0--0----------0--0---0------0--0---0-|--------0---0---------|
|---------------------------------------|----------------------|
|
|(Harmony [pitch shifter])
|--8---8-7--8-10--10--8-10-12--12-10-12-|-13----------12-10-12-|
|-10--10-8-10-12--12-10-12-13--13-12-13-|-15----------13-12-13-|
|---------------------------------------|----------------------|
|---------------------------------------|----------------------|
|---------------------------------------|----------------------|
|---------------------------------------|----------------------|

  4/4                                                                                    
      2/2
|----------------------------------------|--------------------|---------*|
|o---------------------------------------|--------------------|---------*|
|---2--2--2--4--2------2---5--4------5---|-7---5---------5--7-|---------*|
|---2--2--3--3--3------3---3--3------3---|-5---5---------5--5-|---------*|
|o--0--0----------0--0---0------0--0---0-|-------0---0--------|-7-------*|
|----------------------------------------|--------------------|-5-------*|
|
|-15--15-13-15-17--17-15-17-19--19-17-19-|-20b22-r20-19-19h20-|-17\-----*|
|-17--17-15-17-18--18-17-18-20--20-18-20-|-20b22-r20-19-19h20-|-22\-----*|
|----------------------------------------|--------------------|---------*|
|----------------------------------------|--------------------|---------*|
|----------------------------------------|--------------------|---------*|
|----------------------------------------|--------------------|---------*|





Comments


Popular Queensryche tabs & chords
Jet City Woman Bass Tabs
Chasing Blue Sky Chords
Best I Can Tabs
Empire 3 Tabs
Neue Regel 1 Tabs
Nightrider Tabs
Speak 1 Tabs
Spreading The Disease Tabs
Bridge Ukulele
Warning Ukulele


Song lyrics



↑ Back to top | Tablatures and chords are parodies/interpretations of the original songs. You may use it for private study, scholarship, research or language learning purposes only
© 2014 AZChords.com Contact us | Privacy policy | DMCA | Add/correct tabs | Request tabs | Top 50 tabs