>
 >
Empire

Empire Bass Tabs

Queensryche - Empire chords, tabs, tablatures, lyrics

Guitar lessons | Add/correct | Request | Top 50 tabs Artists:  A B C D E F G H I J K L M N O P Q R S T U V W X Y Z 0-9

Empire Bass Tabs – Queensryche

CD, Sheet music, Poster

Do you like Empire? Share with your friends now
Bass TabsTabsTabs v2Tabs v3
Tuning:Standard(EADG)

intro
G|----------------------------------------------------------------|
D|---------------------------------------------------------3-2--0-|
A|-0-12\----------------------------------------------------------|
E|----------------------------------------------------------------|

G|----------------------------------------------------------------------|
D|------------4-5--0---------------------3-2--0-------------------------|
A|-0x33--------------------0x28-------------------0x24--3--------3------|
E|------------------------------------------------------------3---------|

verse
G|-----------------------------------------------------------------|
D|-----------------------------------------------------------------|
A|-0*------------------------3----0*-------------------------------|
E|------------------------3-------------------3*----------1*-------|

G|-----------------------------------------------------------------------|
D|-----------------------------------------------------------------------|
A|-0*------------------------3----0*-------------------------------------|
E|------------------------3------------------3*--------1*----------------|

G|-----------------------------------------------------------------------|
D|-----------------------------------------------------------------------|
A|-0*---------------------------3---0*--------------3------3------3------|
E|----------------------------3------------3----1--1---------------------|

G|-----------------------------------------------------------------------|
D|---------------------------------------------------3----------------3--|
A|-0*------------------------3---0*----------------------0-3-------------|
E|-------------------------3----------------3*---1-----------------------|

pre-chorus
G|-------------------------------------------------------|
D|--------3---------5-----------3------------------------|
A|-55-555--5555--555--55-5555-5--55---------3-3--5-5-----|
E|----------------------------------0--1-1---------------|

G|-------------------------------------------------------|
D|---------3----------5----------3--------3-2--0---------|
A|--55--555--5555--555--55-55555--55---------------------|
E|------------------------------------3*-----------------|

Chorus
G|--------------------------------------------------------|
D|----------------3-2--0---------------4-5--0*------------|
A|--0x28------------------0x28----------------------------|
E|--------------------------------------------------------|

verse
G|--------------------------------------------------------------------|
D|--------------------------------------------------------------------|
A|---3------0*------------------------------------3--0*---------------|
E|-----------------------------------------------3--------------------|

G|----------------------------------------------------------------------|
D|----------------------3-----3-----3-----------------------------------|
A|-------------------------------------------0*--------3---0*-----------|
E|---3-3-3----1---1-------------------------------3---------------2-3-3-|

G|----------------------|
D|-----------------3---|
A|--------0--3-3------|
E|-1--1----------------|

Pre-chorus
G|-----------------------------------------------------------------|
D|-------3----------5---------3------------------------------------|
A|-55-555--5555--555--55-55555--55----------3333-------------------|
E|----------------------------------0--1-1-------------------------|

G|-------------------------------------------------|
D|-------3-----------5-----------3---------3-2--0--|
A|-55-555--5555---555--55--55--55-5----------------|
E|-------------------------------------3*----------|

Chorus
G|---------------------------------|
D|------3-2--0--------------4-5--0-|
A|-0x28-----------0x28-------------|
E|---------------------------------|

G|-------------------------------------------|
D|----------------3-2--0-----------------12*-|
A|-0x32---00-----------3----3-----3/---------|
E|----------------------------------3---3----|


Interlude(guitar plays once) 
G|--------0-2-3---------3-2---------------------------------------------| X4
D|----0-----------------------0-----2-3---2/3\2--0---------------2-3--2-|   
A|--------------------------------------------------------0-2-3---------|
E|--------------------------------------------------0-2-3---------------|

during guitar solo
G|---------------------------------------------------------------------|
D|--------2---------------------3---3---1-1-----------2----------------|
A|--0-0-0--0-------5-----------3--------------3-0-0-0---0----------5---|
E|-------------3-3-3--3--1-1-1----1--------------------------3-3-3---3-|

during guitar solo(continued)
G|--------------------------------------------------------------|
D|-------------------------------------------8-8--5-----8-8---5-|
A|-5-5----3----3-11111111----------11111111/-6-5--3-----6-5---3-|
E|----------3--------------1-1--3-------------------------------|

guitar solo (continued)
G|-----------------------------------------------------|
D|--8-8---5------------8-8--------------3---1----0-----|
A|--6-5---3------------6-5-----------------------------|
E|-------------------------------1---------------------|

chorus(till the end)                                      end on this note
G|----------------------------------------|              |--------------|
D|-----------3-2--0---------------4-5--0--|              |--------------|
A|--0x28----------------0x28--------------|              |-0------------|
E|----------------------------------------|              |--------------|
                                                            "EMPIRE"
| /  slide up
| \  slide down
| h  hammer-on
| p  pull-off
| ~  vibrato
| +  harmonic
| x  play how many times





Comments


Popular Queensryche tabs & chords
Anarchy-x Bass Tabs
Revolution Calling 1 Bass Tabs
Sign Of The Times Bass Tabs
Warning Chords
I Am I Tabs
Neue Regel 1 Tabs
Queen Of The Reich Tabs
Queen Of The Reich 1 Tabs
Waiting For 22 1 Tabs
Waiting For 22 2 Tabs


Song lyrics



↑ Back to top | Tablatures and chords are parodies/interpretations of the original songs. You may use it for private study, scholarship, research or language learning purposes only
© 2014 AZChords.com Contact us | Privacy policy | DMCA | Add/correct tabs | Request tabs | Top 50 tabs