>
 >
Breaking The Silence

Breaking The Silence Guitar Tabs

Queensryche - Breaking The Silence chords, tabs, tablatures, lyrics

Guitar lessons | Add/correct | Request | Top 50 tabs Artists:  A B C D E F G H I J K L M N O P Q R S T U V W X Y Z 0-9

Breaking The Silence Guitar Tabs – Queensryche

CD, Sheet music, Poster

Do you like Breaking The Silence? Share with your friends now
Tabs


---5--------6--------8--------5----6----5----5--------6-------8-----5----6----|
---8--------8--------8--------6----6----6----8--------8-------8-----6----6----|
---7--------7--------7--------5----5----5----7--------7-------7-----5----5----|
---0--------0--------0-----------------------0--------0-------0---------------|
------------------------------------------------------------------------------|
------------------------------------------------------------------------------|
 intro

------------------------------------------------------------------------------|
------------------------------------------------------------------------------|
-x---------------3------2----------------3------2----------------3-------2----|
-x-\-------------0------0----------------0------0-----3----------0-------0----|
-x----------------------------------------------------1-----------------------|
-------------3-------3---------0--1--3-------3---------------3-------3--------|
 pick scrape

------------------------------------------------------------------------------|
------------------------------------------------------------------------------|
-----------3----5----------3-----2--------------3------2---------------3------|
-----------0----3----------0-----0--------------0------0-----3---------0------|
----------------3--------------------------------------------1----------------|
-0--1--3--------1-------3-----3--------0--1--3------3---------------3-----3---|


------------------------------------------------------------------------------|
------------------------------------------------------------------------------|
-2---0------------------------------------------------------------------------|
-0---0---3--------------------------------------------------------------------|
---------3--------------------------------------------------------------------|
---------1--------------------------------------------------------------------|


-------------------------------------------------------------------------------|
----------6--------------------6-----------------------------------------------|
-------3--------------------3--------------3-------2------3--------------------|
----5--------------------5--------------3----------3------3--------------------|
-------------------------------------------------------------------------------|
-3--------------------3--------------1-----------------------------------------|
 verse riff        pm----------------------------------------------------------|

----------------------5---------6---8-----5-------5---5-----3-----------------|
--4---------4---------8---------8---8-----6-------6---6-----4-----------------|
--3---------3---------7---------7-/-7-----5-------5---5-----3-----------------|
--1---------1---------0---------0---0-----------------------------------------|
------------------------------------------------------------------------------|
------------------------------------------------------------------------------|
 prechorus riff

------------------------------------------------------------------------------|
--------------------------------------------------6---6-----------------------|
------------------5-------------------------------5---5-----5---5-------------|
----5-------------5---------------5-------5-------3---3-----5---5-----5-------|
----5--------3----3--------3------5-------5-----------------3---3-----5-------|
----3--------1----3--------1------3-------3---------------------------3-------|
 chorus

------------------------------------------------------------------------------|
-----------------------------------6-----4------------------------------------|
----------5--------------3---------5-----3------------------------------------|
----------5--------------5---------3-----1------5-----------------------------|
-----3----3--------3-----5---------3-----1------5-----------------------------|
-----1----3--------1-----3----------------------3-----------------------------|


---------5b6r5----------------------------------------------------------------|
---------------6--------------------------------------------------------------|
-5-/-7-----------5---5b7------ph5-b6-r5---3-p-2-h-3---------------------------|
------------------------------------------------------------------------------|
------------------------------------------------------------------------------|
------------------------------------------------------------------------------|
 Guitar Interlude

------------------------------------------------------------------------------|
--------------------------------------------6------4--------------------------|
----------------------3---------------------5------3--------------------------|
-------------3---5----1---5-----------------3------1--------------------------|
-------------1---3--------3----3----------------------------------------------|
-------------------------------1----------------------------------------------|
 pre solo   de  eep  un  der ground. . .

------------------------------------------------------------------------------|
-------------------------------------------------------3--4--6--4--3---3--4---|
-^3-----\-------5b7r5--3--5b7r5--/-2h3h5--3p2h3h5--------------------5--------|
---------\--------------------------------------------------------------------|
----------\-------------------------------------------------------------------|
-----------\------------------------------------------------------------------|
 Guitar Solo

-----------------------------ph6----------------------------------------------|
-6--4--3---3--4--6--4--3-----------------ph6----------------------------------|
---------5---------------5--------5---5-----------\------/\-------------------|
-----------------------------------------------ph3-\----/--\------------------|
----------------------------------------------------\--/----\-----------------|
-----------------------------------------------------\/------\----------------|


------------------------------------------------------------------------------|
-------------------------------------------------6----------------------------|
-------------------------------------------3-5-7-----5--5h7-5--7-10-7----10---|
-------------------------------------3-5-7----------------------------10------|
---------------------3-3-3--5-5--6-6------------------------------------------|
-3-3-3--5-5-5--6-6-6----------------------------------------------------------|


--------------------------------------------------------------18--17----17----|
----------------------------------15v-------------18--15-------------15-------|
-12-10----10-12-14--12b14r12--10-------------------------15-------------------|
-------12---------------------------------------------------------------------|
------------------------------------------------------------------------------|
------------------------------------------------------------------------------|


-----17----------16------------------------------------------------------------|
-15------15--14------14---14--15--11--13--10--11---8-\-3-----------------------|
-------------------------------------------------------------------------------|
------------------------------------------------------------/-3----------------|
-----------------------------------------------------------/---------3---5-----|
----------------------------------------------------------/-----------------6--|
                        pm-----------------------------------------------------|        bar scoop

------------------------------------------15--13--15b17--r15--13--15b17--r15--|
------------------------------------------------------------------------------|
-5--2--3--0--2-----5------------/\--------------------------------------------|
-----------------------ph3\----/--\-------------------------------------------|
----------------3----------\--/----\------------------------------------------|
----------------------------\/------\-----------------------------------------|


-13--17--13----13v--15--13--12--13--12--13--15--13--12--13--12--8--12--12--8--|
------------15----------------------------------------------------------------|
------------------------------------------------------------------------------|
------------------------------------------------------------------------------|
------------------------------------------------------------------------------|
------------------------------------------------------------------------------|


----8----8--12--8----8--------------------------------------------------------|
-10---10----------10---10v---8--10--11--13b15r13------------------------------|
------------------------------------------------------------------------------|
------------------------------------------------------------------------------|
------------------------------------------------------------------------------|
------------------------------------------------------------------------------|


------------------------------------------------------------------------------|
--------------------------------------------------------------------6------4--|
--------------------------------------------------------------------5------3--|
----------------------------------------3---------5-----------------3------1--|
-3-3-3-3-3-3-3-3-3-3-3-3-3-3-3-3---5----1----5----3-----3---------------------|
-1-1-1-1-1-1-1-1-1-1-1-1-1-1-1-1---3---------3----------1---------------------|
 can't look back . . .

--------6--5---------------------------------------------6--5-------8---------|
-------------6------------------------------------------------6-/-8---8-------|
-5-6-7----------5----b7-----r5--5---5--7-b8-r7----5h6h7-----------------------|
------------------------------------------------------------------------------|
------------------------------------------------------------------------------|
------------------------------------------------------------------------------|
 Last Interlude

--------------------------------15------10--10-----8---8----------------------|
-8--11--13--15-b-17-b17--15--15----15---13--13-----11--11---------------------|
------------17---19--19-----------------12--12-----10--10---------------------|
----------------------------------------10--10-----8---8----------------------|
------------------------------------------------------------------------------|
------------------------------------------------------------------------------|
                                                         we know you did it.
h  - hammer on
p  - pull off
* - trill
b  - bend (use tremolo bar for downbend)
r  - release bend
/  - slide up
\  - slide down
v  - vibrato
t  - tap (with strumming hand)
x  - fret-hand muting
^ -  natural harmonics
ph- artificial (pinch) harmonics
PM palm mute
                    -\----------/-----------------------------|
Lines going diagonally up and down   --\--------/-------------|
These mean whammy bar                     --\------/----------|
          -                                    --\----/-------|
\ - bar down
/- bar up





Comments


Popular Queensryche tabs & chords
Anarchy-x Bass Tabs
Revolution Calling Bass Tabs
Spreading The Disease Bass Tabs
Anybody Listening? 1 Tabs
Empire Tabs
I Will Remember 1 Tabs
Jet City Woman Tabs
Spreading The Disease Tabs
The Mission Tabs
Tribe Tabs


Song lyrics



↑ Back to top | Tablatures and chords are parodies/interpretations of the original songs. You may use it for private study, scholarship, research or language learning purposes only
© 2014 AZChords.com Contact us | Privacy policy | DMCA | Add/correct tabs | Request tabs | Top 50 tabs