» » »

Queens Of The Stone Age, You Think I Ain't Worth A Doller Tabs (ver.1)

Artists:  A B C D E F G H I J K L M N O P Q R S T U V W X Y Z # 

You Think I Ain't Worth A Doller Tabs (ver.1)

Queens Of The Stone Age Tabs
 Rating:
4/5 (4 votes)
You Think I Ain't Worth A Doller lessons Tabs too difficult? Try these video lessons and learn fast
1
                You Think I Ain't Worth A Dollar, But I Feel Like A Millionaire

Listen to song for rythm

Starts with drums

Intro
d-----------------------------------------
a-----------------------------------------
f-----------------------------------------
c----------------------------------------- x 2
g-----------------------------------------
c---15--17--0--0--0--0--0--0--0--0--0--0--

d-----------------------------------------
a-------------------------------------------
f-------------------------------------------
c-------------------------------------------
g-------------------------------------------
c---15--17--0--0--0--0--0--0--12--0--10--0--

d-------------------------------------------
a-------------------------------------------
f-------------------------------------------
c-------------------------------------------
g-------------------------------------------
c---17--15--0--0--0--0--0--0--12--0--10--0--
i think i've put in  the right amount of 0's.

Verse
d-----------------------------------------
a-----------------------------------------
f-----------------------------------------
c---15--17--0--0--0--0--0--0--0--0--0--0--
g---15--17--0--0--0--0--0--0--0--0--0--0--
c---15--17--0--0--0--0--0--0--0--0--0--0--

Chorus
d------------------------------------
a------------------------------------
f------------------------------------
c---5--5--5--3--3--3--3--3--3--3--3--
g---5--5--5--3--3--3--3--3--3--3--3--
c---5--5--5--3--3--3--3--3--3--3--3--

lead guitar fills:
d-----------------------------------
a-----------------------------------
f-----------------------------------
c-----------------------------------
g-----------------------------------
c---10--12--10--12--10--12--10--12~-

d-----------------------------
a-----------------------------
f--------------------12~-10~--
c----10--12--10--12-----------
g-----------------------------
c-----------------------------

2nd lead guitar fills:
d------------------------------------
a------------------------------------
f------------------------------------
c------------------------------------
g---------------10b12r10--10--8------
c---10--12--10-------------------12~-

d--------------------------------------------------
a------------------------------10--13--10--13--10~-
f-------------------10--12--10---------------------
c---10--12--10--12---------------------------------
g--------------------------------------------------
c--------------------------------------------------

Varied Main Riff
d---------------------------------------------------
a---------------------------------------------------
f---------------------------------------------------
c---------------------------10--12------------------
g-----------------------------------10--12----------
c---0--0--0--0--0--0--0--0------------------10--12--

3rd lead guitar fills
f-------------------------
a---12-b-14--12-12-12-10--
d-------------------------
c-------------------------
g-------------------------
c-------------------------
gradual bend

d-------------------------------------
a---13-h-15---------------------------
f------------10-h-12--10--12--10------
c---------------------------------12--
g-------------------------------------
c-------------------------------------

end lead guitar
d--------------------------------
a-------------------10--13-b-15--
f-----------10--12---------------
c---10--12-----------------------
g--------------------------------
c--------------------------------

4th lead guitar fills
d--------------------------------
a-----------------------13-b-15--
f--------------------------------
c---10--12--10--12--10-----------
g--------------------------------
c--------------------------------

d--------------------------
a--13--15------------------
f----------10--12----------
c------------------10--12--
g--------------------------
c--------------------------

it's kinda right but probably needs improvement. feel free to send any comments on how to improve it.
            
Submit corrections

comments powered by Disqus
↑ Back to top | Queens Of The Stone Age Tabs for You Think I Ain't Worth A Doller. Lyrics for acoustic guitar and electric guitar. 1 Tablatures and chords are parodies/interpretations of the original songs. You may use it for private study, scholarship, research or language learning purposes only