» » »

Queens Of The Stone Age, The Lost Art Of Keeping A Secret Tabs (ver.2)

Artists:  A B C D E F G H I J K L M N O P Q R S T U V W X Y Z # 

The Lost Art Of Keeping A Secret Tabs (ver.2)

Queens Of The Stone Age Tabs
 Rating:
4/5 (4 votes)
The Lost Art Of Keeping A Secret lessons Tabs too difficult? Try these video lessons and learn fast
                Intro/Verses (I've got a secret, that I cannot save)
The rythm to the chords is simple, just listen to the song, 
remember that the little riff at the end isn't played every
time, listen for when you have to play it. 

e-------------------------------------------------------
B-------------------------------------------------------
G---5---------------------------------------------------
D---5---5---4---3---3b-3p1------------------------------
A---3---5---4---3----------3p0--------------------------
E-------3---2---1---------------------------------------

Chorus (whatever you do, don't tell anyone)
This is almost the same set of chords for guitar one, but
strum them a little harder, repeat the first few chords as
neccessary, but only play the last two once each.

Guitar 1
e-------------------------------------------------------
B-------------------------------------------------------
G---5---------------------------------------------------
D---5---5---4---3---5---7-------------------------------
A---3---5---4---3---5---7-------------------------------
E-------3---2---1---3---5-------------------------------

Guitar 2
e-------------------------------------------------------
B-------------------------------------------------------
G---5---12---11---10---12---14--------------------------
D---5---12---11---10---12---14--------------------------
A---3---10---9----8----10---12--------------------------
E-------------------------------------------------------

Bridge (I think you already know, how far I go, not to say)
Play this twice through, but on the second time, don't play
last chord and go straight into the solo.

Guitar 1
e-------------------------------------------------------
B-------------------------------------------------------
G-----------12\\\\\-------------------------------------
A---4---6---xx\\\\\-------------------------------------
D---4---6---10\\\\\-------------------------------------
E---2---4-----------------------------------------------

Guitar 2
e-------------------------------------------------------
B-------------------------------------------------------
G-------------12\\\\\-----------------------------------
A---11---13---xx\\\\\-----------------------------------
D---11---13---10\\\\\-----------------------------------
E---9----11---------------------------------------------

Solo
Second Guitar plays the intro/verse chords behind. It's 
pretty simple. The notes marked with a * are only half a bend,
the other notes are a full, long bend
 

     *     *     
e----8b----8b---11b---15---12b-------------------------
B---11b---11b---14b---18---15b-------------------------
G------------------------------------------------------
D------------------------------------------------------
A------------------------------------------------------
E------------------------------------------------------ Play Twice

     *     *      
e----8b----8b---11b---13b---14b---14b---14b------------
B---11b---11b---14b---16b---17b---17b---17b------------
G------------------------------------------------------
D---------------------------------------------3////////
A---------------------------------------------3////////
E---------------------------------------------3////////

Outro
Both Guitars

e-------3-----------------------------------------------
B-------3-----------------------------------------------
G---5-5-5-----------------------------------------------
D---5-5-5---3---4---5-----------------------------------
A---3-3-3---3---4---5-----------------------------------
E-------3---1---2---3----------------------------------- Play Twice

e------------------------------------------------------
B-------10---------------------------------------------
G---5-5-10---------------------------------------------
D---5-5-10---3---4---5---------------------------------
A---3-3------3---4---5---------------------------------
E------------1---2---3---------------------------------

e--------8-------------3-------------------------------
B-------11-------------3-------------------------------
G---5-5----------------5-------------------------------
D---5-5----3---4---5---5-------------------------------
A---3-3----3---4---5---3-------------------------------
E----------1---2---3---3-------------------------------
            
Submit corrections

comments powered by Disqus
↑ Back to top | Queens Of The Stone Age Tabs for The Lost Art Of Keeping A Secret. Lyrics for acoustic guitar and electric guitar. Tablatures and chords are parodies/interpretations of the original songs. You may use it for private study, scholarship, research or language learning purposes only