» » »

Tension Head Tabs (ver.4)

Artists:  A B C D E F G H I J K L M N O P Q R S T U V W X Y Z # 

Tension Head Tabs (ver.4)

Queens Of The Stone Age
Rating:
0/5 (0 votes)

Hard to play? Try these video lessons and learn fast.
                (Intro)
                 Tension Head – Queens Of the Stone Age


Tuning: CGCFAD

D|--------------------------------------------------------------------|
A|--------------------------------------------------------------------|
F|--------------------------------------------------------------------|
C|-------------------------------10-10-10-10-10----10-10-10-10-10-----|
G|-------------------------------8—-8—-8--8--8-----8--8--8--8--8------|
C|--0-12-11-7-10-6-0-5-6-7--------------------------------------------|

D|--------------------------------------------------------------------|
A|--------------------------------------------------------------------|
F|--------------------------------------------------------------------|
C|----10-10-10-10-10----10-10-10-10-10-12--13--15---------------------|
G|----8--8--8—-8—-8-----8--8--8--8--8--10--11--13---------------------|
C|--------------------------------------------------------------------|

D|--------------------------------------------------------------------|
A|--------------------------------------------------------------------|
F|--------------------------------------------------------------------|
C|----10-10-10-10-10----10-10-10-10-10----10-7------------------------|
G|----8--8--8--8--8-----8--8--8--8--8-----8--5------------------------|
C|--------------------------------------------------------------------|

D|--------------------------------------------------------------------|
A|--------------------------------------------------------------------|
F|--------------------------------------------------------------------|
C|----10-10-10-10-10----10-10-10-10-10-12--13--15---------------------|
G|----8--8--8—-8—-8-----8--8--8--8--8--10--11--13---------------------|
C|--------------------------------------------------------------------|
            
Hard to play? Try these video lessons and learn fast. | Correct




comments powered by Disqus
↑ Back to top | Tablatures and chords are parodies/interpretations of the original songs. You may use it for private study, scholarship, research or language learning purposes only