» » »

Suture Up Your Future Tabs (ver.1)

Artists:  A B C D E F G H I J K L M N O P Q R S T U V W X Y Z # 

Suture Up Your Future Tabs (ver.1)

Queens Of The Stone Age
Rating:
0/5 (0 votes)

Hard to play? Try these video lessons and learn fast.
                queens of the stone age
suture up your future
tuning half step down
  intro              x2 verse
e|--------0--------0-|------------------|------------------------------------|
b|--------0--------0-|------------------|-----------12-----------------------|
g|---0----x----0---x-|------------------|-9-12-11-12--12-11-12-9-------------|
d|-4-4--4-4--2-2--2--|------------------|------------------------------------|
a|-5-5--5----3-3--3--|----2-----2-------|------------------------------------|
E|-------------------|-0-3--30-3--------|------------------------------------|
                      for bass and synth  4 synth arrg. 4 guitar
                      tabbed 4 guitar
  chorus                  x4  bridge     x4 end ax14   x2
e|-----0-----0----00----0-|----------------|------|-------|----xx------------|
b|-----0-----0----00----0-|----------------|------|-------|----xx------------|
g|--0---0--0--------------|----------------|-2-2xx|-2-2-22|-2-2xx------------|
d|-44-4--22-2--------2-2--|-2-2-----2-2-2-2|-2-2xx|-2-2-22|-2-2xx------------|
a|-55-5--33-3--2----00-0--|-3-3-2-2-0-0-0-0|-o-0--|-0-0-00|-0-0xx------------|
E|-------------00-0-------|-----3-3--------|------|-------|----xx------------|
        x4          x2           fade out   last chord
e|--------|-----------|-----------------|------0------------------------------|
b|--------|-----------|-----------------|-----3-------------------------------|
g|-9\5-7\4|-9/12-12/14|-17\14-16\12/(14)\----0--------------------------------|
d|--------|-----------|-----------------|---4---------------------------------|
a|--------|-----------|-----------------|--5----------------------------------|
E|--------|-----------|-----------------|-------------------------------------|

         THATS PRETTY MUCH ALL OF IT
            
Hard to play? Try these video lessons and learn fast. | Correct




comments powered by Disqus
↑ Back to top | Tablatures and chords are parodies/interpretations of the original songs. You may use it for private study, scholarship, research or language learning purposes only