>
 >
Song For The Deaf 2

Song For The Deaf 2 Bass Tabs

Queens Of The Stone Age - Song For The Deaf 2 chords, tabs, tablatures, lyrics

Guitar lessons | Add/correct | Request | Top 50 tabs Artists:  A B C D E F G H I J K L M N O P Q R S T U V W X Y Z 0-9

Song For The Deaf 2 Bass Tabs – Queens Of The Stone Age

CD, Sheet music, Poster

Do you like Song For The Deaf 2? Share with your friends now
Bass TabsBass Tabs v2TabsTabs v2
---------------------------------------------
A SONG FOR THE DEAD – QUEENS OF THE STONE AGE
---------------------------------------------
Tuning:  C F Bb Eb

INTRO: (listen to track for amount of times to repeat and timing)
Eb|-------------------------------------------------------------------------|
Bb|-------------------------------------------------------------------------|
F |-------------------------------------------------------------------------|
C |--12-\----0--0----0-0-0----0-0-0-0---0---0----12-12-12-12-12-12-12-12----|

SMALL INTERLUDE:
|-------------------------------------------------------------------------|
|-------------------------------------------------------------------------|
|-------------------------------------------------------------------------|
|-----------0----0-------0-------0--------------1/-12---------------------|

VERSE: (listen to track for timing and amount of times to do this)
|------------------------------------------------------------------------|
|------------------------------------------------------------------------|
|-----------------7--------------8-------------7-------------------------|
|------0---0----------0-0--0---------0---0-------------------------------|

BASS SOLO ONE:
|------------------------------------------------------------------------|
|------------------------------------------------------------------------|
|------------------------------------------------------------------------|
|----------3/----6/----8/---11-------------------------------------------|

CHORUS: (listen to track etc…)
|------------------------------------------------------------------------|
|------------------------------------------------------------------------|
|-------------7-----------8----------10-10-10-10-10-10-10-10-------------|
|-----0--0------0-0--0------0-------------------10-10-10-10--11-11-11-11-|

(Then verse is repeated but don’t do bass solo. then chorus is repeated)
Also i didnt have enough space for the tens thats y they overlap. dont play the two tens 
r seperate on each string.


BRIDGE:
|------------------------------------------------------------------------|
|------------------------------------------------------------------------|
|------------------------------------------------------------------------|
|------0------0--------0-0-----------1/12\1------------------------------|

SOLO: ok i havnt done this properly i dont get the first part but where the guitars do 
cool riff in betwen heres the bass for it:
|------------------------------------------------------------------------|
|---5--------------------------------------------------------------------|
|------5--7--5-7-7—5b----7---5--7----------------------------------------|
|------------------------------------------------------------------------|

|------------------------------------------------------------------------|
|---------------5---------------7b---5b----------------------------------|
|------5---7-------7--5--7-----------------------------------------------|
|------------------------------------------------------------------------|

then just make up something random or improvise or summin nick oliveri is way to advanced for me. ^_^

VERSE:
|------------------------------------------------------------------------|
|------------------------------------------------------------------------|
|--------------7-----------8-----------7---------------------------------|
|-------0-0------0-0-0------0-0-0-----------------12\--------------------|


|------------------------------------------------------------------------|
|------------------------------------------------------------------------|
|--------------7-----------8-----------7---------------------------------|
|-------0-0------0-0-0------0-0-0-----------------1/---------------------|

Play this and repeat the verse. then the slides and then the intro is repeated at the 
again listen to track for timing and crap u get the idea.

This is my first tab so dont b too hard also i dont play bass i play guitar and drums. 
thought i wud hav a shot at this tab.

enjoy i hope its decent enough. peace out.


| /  slide up
| \  slide down
| h  hammer-on
| p  pull-off
| ~  vibrato
| +  harmonic
| x  Mute note
===========================================================================





Comments


Popular Queens Of The Stone Age tabs & chords
Hanging Tree Bass Tabs
I Never Came Bass Tabs
Leg Of Lamb Tabs
The Sky Is Fallin Tabs
The Sky Is Falling 1 Tabs
The Sky Is Falling 3 Tabs
The Sky Is Falling Intro Tabs
The Vampyre Of Time And Memory 1 Tabs
You Got A Killer Scene There Man Tabs
Youre So Vague Tabs


Song lyrics



↑ Back to top | Tablatures and chords are parodies/interpretations of the original songs. You may use it for private study, scholarship, research or language learning purposes only
© 2014 AZChords.com Contact us | Privacy policy | DMCA | Add/correct tabs | Request tabs | Top 50 tabs