» » »

Sick Sick Sick Bass tabs (ver.2)

Artists:  A B C D E F G H I J K L M N O P Q R S T U V W X Y Z # 

Sick Sick Sick Bass tabs (ver.2)

Queens Of The Stone Age
Rating:
0/5 (0 votes)

Hard to play? Try these video lessons and learn fast.
                Queens Of The Stone Age - Sick Sick Sick

*Played with slight distortion

Intro x4(0:05)
F|---------------------------------|
C|---------------------------------|
G|---------------------------------|
C|-0-------0-------0-------0-------|

Verse x11
F|---------------------------------|
C|---------------------------------|
G|-----5-5-----5-5-----5-5-----5-5-|
C|-0-0-----0-0-----0-0-----0-0-----|

Pre-Chorus
F|---------------------------------|
C|---------------------------------|
G|-----5-5-----5-5-----5-5-5-5-5-5-|
C|-0-0-----0-0-----0-0-------------|

Chorus x4
F|---------------------------------|
C|---------------------------------|
G|---------------------5h7-5h7p5\3-|
C|-0-------0-------0---------------|

Post Chorus                   rpt x4                            rpt x4
F|---------------------------------|---------------------------------|
C|*-------------------------------*|*-------------------------------*|
G|*-------------------------------*|*3---3---5---5---3-2---7-----7--*|
C|---------------------------------|---0---0---0---0-----0-----0---0-|

Verse x7
Pre-Chorus
Chorus x8
Break
Chorus x8

Post Chorus 2                 rpt x4                            rpt x4
F|---------------------------------|---------------------------------|
C|*-------------------------------*|*-------------------------------*|
G|*-------------------------------*|*-------------------------------*|
C|-0-------0-------0---------------|-0-------0-------0-------0-------|

Bridge x4
F|---------------------------------|
C|---------------------------------|
G|-5-5-5-5-5-5-5-5-5-5-5-5-5-5-5-5-|
C|---------------------------------|

Chorus x8
End
            
Hard to play? Try these video lessons and learn fast. | Correct




comments powered by Disqus
↑ Back to top | Tablatures and chords are parodies/interpretations of the original songs. You may use it for private study, scholarship, research or language learning purposes only