» » »

Sick Sick Sick Tabs (ver.5)

Artists:  A B C D E F G H I J K L M N O P Q R S T U V W X Y Z # 

Sick Sick Sick Tabs (ver.5)

Queens Of The Stone Age
Rating:
0/5 (0 votes)

Hard to play? Try these video lessons and learn fast.
                Band: Queens of the stone age


Ok, here's tab for great and easy song by Queens of the stone age, Sick Sick Sick. I did 


Tunning: C-F-Bb-Eb-G-C (standart QOTSA)

/ - slide to
// - slide down the neck
h - hammer on
p- pulloff

Intro
|--------------------------------|
|--------------------------------|
|--------------------------------|
|--------------------------------|      it sounds very strange, but cool ;-)
|--17-17-17-17-17----------------|
|---0--0--0--0--0---etc----------|

when the bass comes in, you must listen to the rhytm of the guitar its something like

Verse:
|-------------------------------------------------------------------------------------|
|-------------------------------------------------------------------------------------|
|-------------------------------------------------------------------------------------|
|-------------------------------------------------------------------------------------|
|--17-17-17-1717-17-17-17-1717-1717-17-1717-1717-1717-17-1717-17-1717-1717-17-17------|
|---0--0--0--0-0--0--0--0--0-0--0-0--0--0-0--0-0--0-0--0--0-0--0--0-0--0-0--0--0------|

Josh sings in the same rhytm, try to get it

Chorus:
|--------------------------------|
|--------------------------------|   4 times
|--------------------------------|
|--------------------------------|
|--17-17-17---19h21-19h21p19-----|
|---0--0--0----------------------|

Post-chorus:
|--------------------------------|   Eight times
|--------------------------------|
|--------------------------------|
|--------------------------------|
|--------------------------------|
|--1010-1212-10-12/7-1414-12-----|

than back to the Verse riff

In next chorus, Troy is playing slide guitar, something like

|-----17/16/15/12/14-------------|
|--------------------------------|
|--------------------------------|
|--------------------------------|
|--------------------------------|
|--------------------------------|

Josh is playing Chorus riff, but 8 times

after that chorus there are no guitars, but few seconds before next chorus Troy is 
with slide again
Dunno, maybe its played on keyboard :D

      !slow!      !slow!
|------14//--------15//----------|  two times
|--------------------------------|
|--------------------------------|
|--------------------------------|
|--------------------------------|
|--------------------------------|

Then 8 times chorus riff and 8 times post chorus

After the post chorus, there is another riff

Try to play

|--------------------------------|
|--------------------------------|
|--------------------------------|
|--------------------------------|
|--19191919191919191919----------|
|---0-0-0-0-0-0-0-0-0-0----------|

or

|--------------------------------|
|--------------------------------|
|--------------------------------|
|--------------------------------|
|--17h19191917h191917h191919-----|
|---0--0-0-0-0--0-0-0--0-0-0-----|

just play what sounds better to you (omg, don't count it...)


And than theres just ending chorus (8 times)

Thats all, I hope you will get it ;-)
            
Hard to play? Try these video lessons and learn fast. | Correct




comments powered by Disqus
↑ Back to top | Tablatures and chords are parodies/interpretations of the original songs. You may use it for private study, scholarship, research or language learning purposes only