» » »

Running Joke Bass tabs (ver.1)

Artists:  A B C D E F G H I J K L M N O P Q R S T U V W X Y Z # 

Running Joke Bass tabs (ver.1)

Queens Of The Stone Age
Rating:
0/5 (0 votes)

Tabs too difficult? Try these video lessons and learn fast.
                Come in at 01:13 
G|------------------------9p8--------------------------|
D|---------/9-7-9-----------------------/9-7-9---------|
A|7--7-7-7--------9~--6~-------7--7-7-7--------9~--6\--|
E|-----------------------------------------------------|

G|------------------------9p8----------------------------|
D|---------/9-7-9-----------------------/9-7-9-/15~--9~--|
A|7--7-7-7--------9~--6~-------7--7-7-7------------------|
E|-------------------------------------------------------|

====x3

G|-------------------------------------------------------------------------|
D|-------------------------------------------------------------------------|
A|----------------------------7--7-7-7-5--5-5-5-/10--10-10-10----------7h9-|
E|7--7-7--7-7-7-5--5-5--5-5-5---------------------------------7--7-7-7-----|

Continue until the fade out.
            
Tabs too difficult? Try these video lessons and learn fast.




comments powered by Disqus
↑ Back to top | Tablatures and chords are parodies/interpretations of the original songs. You may use it for private study, scholarship, research or language learning purposes only