» » »

Queens Of The Stone Age, No One Knows - Clear Tab Tabs (ver.1)

Artists:  A B C D E F G H I J K L M N O P Q R S T U V W X Y Z # 

No One Knows - Clear Tab Tabs (ver.1)

Queens Of The Stone Age Tabs
 Rating:
4/5 (4 votes)
No One Knows - Clear Tab lessons Tabs too difficult? Try these video lessons and learn fast
1
                  Tuning: down 2 steps (CFA#D#GC)

 --------------
 h = hammer on
 \ = slide down
 --------------


Intro
C|-0-----0-----0-----0-|
G|-8-----8-----8-----8-|
D|-9-----9-----9-----9-|
A|-9-----9-----9-----9-|
F|-7-----7-----7-----7-|
C|---------------------|


erse 1
C|------------------------------------|
G|----10--10--8-----10--10--8---------|
D|-----x---x-----9---x---x-----9------|
A|-2---9---9-----9---9---9-----9------|
F|-----7---7-----7---7---7-----7------|
C|-0-----------------------------12\0-| (very fast slide)

Verse 2
C|--------------------------------|
G|----8-----8-----8-----8-10----8-|
D|----9-----9-----9-----9--7-9--9-|
A|----9-----9-----9-----9--9-9--9-|
F|----7-----7-----7-----7--7-7--7-|
C|-0-----0-----0-----0-------0----|


Chorus
C|-------------------------------------------|
G|-------------------------------------------|
D|-8-8-8-8-8-8-8-----12-12-12-12-12-12-12-12-|
A|-9-9-9-9-9-9-9-7h9-13-13-13-13-13-13-13-13-|
F|-9-9-9-9-9-9-9-7h9-13-13-13-13-13-13-13-13-|
C|-7-7-7-7-7-7-7-7---11-11-11-11-11-11-11-11-|
    "No  One  knows ..."


Verse 3
C|------------------------------------|
G|----10--10--8-----10--10--8---------|
D|-----x---x-----9---x---x-----9------|
A|-----9---9-----9---9---9-----9------|
F|-----7---7-----7---7---7-----7------|
C|-0---0---0---------0-----------12\0-| (very fast slide)


Bridge
C|-----------------------------------------------------|
G|-----------------------------------------------------|
D|-9-11-12-11-14-16-14---------------------------------|
A|---------------------9-9-9-9-9-9-9-9-9-9-9-9-9-9-9-9-|
F|-7--9-10--9-12-14-12-9-9-9-9-9-9-9-9-9-9-9-9-9-9-9-9-|
C|---------------------7-7-7-7-7-7-7-7-7-7-7-7-7-7-7-7-|


Verse 4
C|---------------------------------|
G|---------------------------------|
D|-9-9-9-9-9-9-9-9-9-9-9-9-9-9-9-9-|
A|-9-9-9-9-9-9-9-9-9-9-9-9-9-9-9-9-|
F|-7-7-7-7-7-7-7-7-7-7-7-7-7-7-7-7-|
C|-0-0-0-0-0-0-0-0-0-0-0-0-0-0-0-0-|


Verse 5
C|--------------|
G|--------------|
D|--------------|
A|------8-------|
F|-9-10-6-9-7-9-|
C|-7--8---7-5-7-|


Bass solo
D|------------------------------------------------|
A|--------------------------------------5h7-7-7-7-|
F|--7-7-7-7-7-7-7-7-7-7-5h7-7-7-7-7-7-7-----------|
C|------------------------------------------------|


D|---------------------|
A|---------------------| 4
F|-5h7-7-7-7-----------| times
C|-----------5h7-7-7-7-| then


D|---------------------|
A|---------------------|
F|---------------------| 4
C|-0-12-0-12-0-12-0-12-| times



Fade In
C|-12>-|
G|-----| (during the
D|-----| 4 last notes 
A|-----| of bass solo)
F|-----|
C|-----|


Outro
C|-0-----0-----0-----0-|
G|-8-----8-----8-----8-|
D|-9-----9-----9-----9-|
A|-9-----9-----9-----9-|
F|-7-----7-----7-----7-|
C|-0-----0-----0-----0-|



 ----ORDER----
 Intro    : 1X
 Verse  1 : 4X
 Verse  2 : 4X
 Chorus   : 1X
 Verse  3 : 2X
 Verse  2 : 4X
 Chorus   : 1X
 Verse  3 : 2X
 Chorus   : 1X
 Verse  3 : 2X
 Bridge   : 4X
 Verse  3 : 2X
 Verse  2 : 4X
 Chorus   : 1X
 Verse  3 : 2X
 Verse  2 : 4X
 Chorus   : 1X
 Verse  3 : 2X
 Chorus   : 1X
 Verse  3 : 2X
 Bridge   : 4X
 Verse  4 : 3X
 Verse  5 : 1X
 Verse  4 : 3X
 Verse  5 : 4X
 Bass solo: 1X
 Fade In  : 1X
 Verse  2 : 2X
 Chorus   : 1X
 Verse  3 : 2X
 Chorus   : 1X
 Outro    : 1X
 -------------

                            ...such a good song...
            
Submit corrections

comments powered by Disqus
↑ Back to top | Queens Of The Stone Age Tabs for No One Knows - Clear Tab. Lyrics for acoustic guitar and electric guitar. 1 Tablatures and chords are parodies/interpretations of the original songs. You may use it for private study, scholarship, research or language learning purposes only